Are You Gonna Be My Girl

Jet

Get Are You Gonna Be My Girl chords

  			Baixo simulado na guitarra ( intro ) 
    e---------------------------------------------------| 
    B---------------------------------------------------| 
    G---------------------------------------------------| 
    D---------------------------------------------------| 
    A-----------3-----------------------3--35^-53-------| 
    E-555-55-030--555-55-0303-555-55-030--5------55-----| 
    e-------------------------------------| 
    B-------------------------------------| 
    G-------------------------------------| 
    D-------------------------------------| 
    A-----------3-----------------------3-| 
    E-555-55-030--555-55-0303-555-55-030--| 
RIFF 
    e-------------------| 
    B-------------------| 
    G------5-7^-7-5-----| 
    D----7-5-7^-7-5-7-7-| 
    A----7----------7-7-| 
    E-------------------|   
Go!! 
() 
RIFF 
So 1, 2, 3, take my hand and come with me 
because you look so fine  
and i really wanna make you mine. 
() 
I say you look so fine  
that I really wanna make you mine. 
() 
Oh, 4,5,6 c'mon and get your kicks  
now you dont need that money  
when you look like that, do ya honey. 
() 
RIFF 
() 
Big black boots,  
long brown hair,  
she's so sweet  
with her get back stare. 
  Well I could see, 
  you home with me,  
  but you were with another man, yea! 
  I know we,  
ain't got    much to say,  
  before I let you get away, yea! 
I said, are you gonna be my girl? 
() 
RIFF 
Well, so 1,2,3, take my hand and come with me 
because you look so fine  
and i really wanna make you mine. 
() 
I say you look so fine  
that I really wanna make you mine. 
() 
Oh, 4,5,6 c'mon and get your kicks  
now you dont need that money 
with a face like that, do ya. 
() 
RIFF 
() 
Big black boots,  
long brown hair,  
she's so sweet  
with her jet back stare. 
  Well I could see, 
  you home with me,  
  but you were with another man, yea! 
  I know we,  
ain't got    much to say,  
  before I let you get away, yea! 
I said, are you gonna be my girl? 
SOLO: ((X X X 9 10 10) ) 
Oh yea. Oh yea. C'mon! 
I could see, 
you home with me,  
but you were with another man, yea! 
I know we,  
ain't got much to say,  
before I let you get away, yea! 
Uh, be my girl. 
Be my girl. 
..... 
iff 2: 
A|--------|
E|--03030-|
Are you gonna be my girl?!                  Yea 
____________________________________________ 
Cifrada por Peter Jordan - www.cifras.com.br 
Webmasters: copiem mas não mudem o nome 
do autor da transcrição