Get Me Outta Here

Jet

Get Get Me Outta Here chords

  			Intro  1st guitar 
e--------------------------------------------r 
b--------------------------------------------e 
g--------------------------------------------p 
d--------------------------------------------e  x6 
a--------------------------------------------a 
E---5-5-3-5-5-3-3-5-5------------------------t 
2nd guitar intro (after 1st guitar does 1st into 4 times) 
e---------------------------------r 
b---------------------------------e 
g---------------------------------p 
d---------------------------------e   x2 
a---7-7-5-7-7-5-5-7-7-------------a 
E---5-5-3-5-5-3-3-5-5-------------t 
Verse 
e---------------------------------x----------------------r 
b---------------------------------x----------------------e 
g---------------------------------x----------------------p 
d---------7--77-------------------x----------------------e  x2 
a-----7---5--557---------------7-7x-7--------------------a 
E-----5--------5---------------5-5x-5--------------------t 
Another part of the verse 
e-------------- 
b-------------- 
g-------------- 
d-------------- x5 
a------77------ 
E------55------ 
Back to intro 
This is most of the song and I?ll do the rest later?..
but these are the maor chords that I showed u and so u can prob
figure it out 
PEACE  happy playin 
-ikorn