Lash - Better Than You 
INTRO/VERSE: 
E ------------------------------------------------------------------------ 
B ------------------------------------------------------------------------ 
G -------------------------------11--------------------------------------- 
D -------------------11--------------11--------------------12-12------9--- 
A ------------11----------11-------------11----------------12-12-------9--- 
E ------9---------------------------------------------------10-10-----7-- 
"So now the time has come..." 
Pre CHORUS: 
"You say 'no'?" 
CHORUS: 
"You touch me and I feel frozen..." 
"I'm better than you..." 
BRIDGE: 
E ------------------------------|---------------------------------------- 
B ------------------------------|---------------------------------------- 
G ------------------------8-----|-----------------8---------------------- 
D ------8-----8-----8-----8-----|-----8-----8-----8---------------------- 
A ------8-----8-----8-----6-----|-----8-----8-----6---------------------- 
E ------6-----5-----4-----------|-----6-----5---------------------------- 
                      X 3                                       X 1 
Play the necessary parts until the finish...