Tabbed By Andrew Schultz  ([email protected]) 
Tuning: Standard 
Intro (Remember To Mute Chords) 
e  --------------------------------------------- 
b  --------------------------------------------- 
g  --------------------------------------------- 
d  ----------mute------------------------------- 
a  --4-4--4-4-4-4-4-4--4-4---------------------- 
E  --2-2--2-2-2-2-2-2--2-2---------------------- 
Rhythm Verse Guitar 
e  --------------------------------------------- 
b  --------------------------------------------- 
g  --------------------------------------------- 
d  --------------------------------------------- 
a  ------0-1-2-2---3-2-0-2-2-0------------------ 
E  --2-2-----------------------0---------------- 
Chorus (Chords) 
"Don't Want To Grow.." 
e  --------------------------------------------- 
b  --------------------------------------------- 
g  --------------------------------------------- 
d  --7-----4--2--------------------------------- 
a  --5--4--2--0--------------------------------- 
E  -----2--------------------------------------- 
Post-Chorus (Chord) 
"Take..., Take.." 
e  --------------------------------------------- 
b  --------------------------------------------- 
g  --------------------------------------------- 
d  --6-6-6-------------------------------------- 
a  --4-4-4-------------------------------------- 
E  --------------------------------------------- 
Solo 
e  -----------------0-------0---0--------------- 
b  -----0-----0--/7---7---5---4----------------- 
g  --3-----4------------------------------------ 
d  --------------------------------------------- 
a  --------------------------------------------- 
E  --------------------------------------------- 
e  ----------------0--0----0---0---------------- 
b  -----0-----0--5-------7---7------------------ 
g  --3-----4------------------------------------ 
d  --------------------------------------------- 
a  --------------------------------------------- 
E  --------------------------------------------- 
Thats it apart from one little riff the lead plays in the intro. I love the blonde guitarist in the 
video clip, man she is sexy!!!!