Australia 
   /\          ////////				*******************************************    
  //\\            ||				*    (tinpan.fortunecity.com/mingus/64)	  * 
 //--\\           ||				******************************************* 
//    \\ndrew's   ||abs 
Tabbed By Andrew Schultz  ([email protected]) 
Tuning: Standard 
Intro (Chords Muted) 
e  --------------------------------------------- 
b  --------------------------------------------- 
g  --------------------------------------------- 
d  -----------7-7-6----------------------------- 
a  --7-7-7-7--5-5-4-7--7-7-7-7------------------ 
E  --5-5-5-5--------5--5-5-5-5------------------ 
Verse (Chords) 
"You Ain't A Little Angel.." 
e  --------------------------------------------- 
b  --------------------------------------------- 
g  --------------------------------------------- 
d  --7-----9------------------------------------ 
a  --5--4--7--7--------------------------------- 
E  -----2-----5--------------------------------- 
"Your On Your Way.." 
e  -----------2--------------------------------- 
b  -----------4--------------------------------- 
g  -----------3--------------------------------- 
d  --4--------2--------------------------------- 
a  --2--5--4------------------------------------ 
E  -----3--2------------------------------------ 
Verse 
e  --------------------------------------------- 
b  --------------------------------------------- 
g  --------------------------------------------- 
d  --------------------------------------------- 
a  --------------------------------------------- 
E  --------------------------------------------- 
Pre-Chorus (Chords) 
"Now I've Got To Let You.." 
e  --------------------------------------------- 
b  --------------------------------------------- 
g  --------------------------------------------- 
d  --5------------------------------------------ 
a  --3--7--3--5--------------------------------- 
E  -----5--1--3--------------------------------- 
"And I've Got To Let You.." 
e  --------------------------------------------- 
b  --------------------------------------------- 
g  --------------------------------------------- 
d  --5------------------------------------------ 
a  --3--7--3--2--------------------------------- 
E  -----5--1--0--------------------------------- 
Chorus (Chords) 
"There's A Door.." 
e  --------------------------------------------- 
b  --------------------------------------------- 
g  --------------------------------------------- 
d  --7--9--10--12------------------------------- 
a  --5--7--8---10------------------------------- 
E  --------------------------------------------- 
Bridge (Chords) 
"A Beauty Queen.." 
e  --------------------------------------------- 
b  --------------------------------------------- 
g  --------------------------------------------- 
d  --5--7--9--10-------------------------------- 
a  --3--5--7--8--------------------------------- 
E  --------------------------------------------- 
"You Didn't See.." 
e  --------------------------------------------- 
b  --------------------------------------------- 
g  --------------------------------------------- 
d  --5--7--9--10--12---------------------------- 
a  --3--5--7--8---10---------------------------- 
E  --------------------------------------------- 
Outro (Chords) 
"History.." 
e  --------------------------------------------- 
b  --------------------------------------------- 
g  --------------------------------------------- 
d  -----5--7------------------------------------ 
a  --8--3--5------------------------------------ 
E  --6------------------------------------------