Transcribed by Brett Cook [email protected] 
 - notes relative to capo 
INTRO/VERSE: 
    1 + 2 + 3 + 4 + | 1 + 2 + 3 + 4 +  
E|------------------|-----------------| 
B|------------------|-----------------| 
G|------------------|-----------------| 
D|--2---2--2--4--44-|-5---5--5--4--44-|  
A|--0---0--0--0--00-|-0---0--0--0--00-| 
E|------------------|-----------------| 
VERSE - pretty much the same as the intro but you can play 
this to fill it out more. 
    1 + 2 + 3 + 4 + | 1 + 2 + 3 + 4 +  
E|------------------|-----------------| 
B|--2---2--2--3--33-|-5---5--5--3--33-| 
G|--0---0--0--0--00-|-0---0--0--0--00-| 
D|--2---2--2--4--44-|-5---5--5--4--44-|  
A|--0---0--0--0--00-|-0---0--0--0--00-| 
E|------------------|-----------------| 
CHORUS: 
E|--0----0-----0--0--0-----| 
B|--1----0-----1--3--1-----| 
G|--0----0-----2--2--2-----| 
D|--2----2-----2--2--2-----| 
A|--3----2-----0--0--0-----| 
E|-------0-----------------| x 3 
E|--0----0-----0--0--0---2--3------| 
B|--1----0-----1--3--1---3--3------| 
G|--0----0-----2--2--2---2--2------| 
D|--2----2-----2--2--2---0--0------| 
A|--3----2-----0--0--0-------------| 
E|-------0-------------------------|