() 
So the aliens have landed 
They'll be moving through you and I 
And as the family disbanded 
They dragged the sadness into the light 
No more tears and no more pain 
Only things to keep you sane - it's only fun 
-----------------6^8^10-------^8^8^8^6^3 
Lloydie plucks the chords for the second verse... 
E |-------------------------------------------------------------------------------------- 
B |------6----6----6----6--------10-------10-------10-------10--------------------------- 
G |----7----7----7----7-------10-------10-------10-------10---------7-----7-----7-----7-- 
D |--7----7----7----7------10-------10-------10-------10----------8-----8-----8-----8---- 
A |-------------------------------------------------------------8-----8-----8-----8------ 
E |-------------------------------------------------------------------------------------- 
And in the distance there's talk now 
Everyone wants to go home 
E |-----------------------------------------------------------------10-----10-----10-----10-- 
B |------6----6----6----6--------10-------10-------10-------10------------------------------- 
G |----7----7----7----7-------10-------10-------10-------10---------------------------------- 
D |--7----7----7----7------10-------10-------10-------10----------8------8------8------8----- 
A |-------------------------------------------------------------8------8------8------8------- 
E |------------------------------------------------------------------------------------------ 
I hope you know you're not leaving 
For the night has just begun 
No more tears and no more pain 
Only things to keep you sane - only fun 
And if I live to stay a day 
Words are left to throw away - only fun 
                            No pain for a rusty boat 
                                          rusty boat 
       And it started       no pain for a rusty boat 
         Down hearted       no pain for a rusty boat 
You gotta spit it out, spit it out, spit it out 
          spit it out, spit it out, spit it out              oh-oh 
And if I live to stay a day 
Words are left to fade away - it's only fun 
No more tears and no more pain 
Only things to keep you sane - only fun.