BACKSEAT CLAUSE (A.Wasiliev) 
Tabbed by MOMO 
E------------------------------------------------------------------------------------- 
B------0-------0-------0---3-1-0-------0-------0-------0-----0-----0-----0-----0------ 
G----2---2---2---2---2---2-------2---2---2---2---2---2---2-----2-----2-----2-----2---- 
D--0-------1-------2---------------0-------1-------2-------2-----2-----2-----2-----2-- 
A------------------------------------------------------------------------------------- 
E------------------------------------------------------------------------------------- 
E------------------------------------------------------------------- 
B------0-------0-------0---3-1-0-------0-------0-------0---3-1-0---- 
G----2---2---2---2---2---2-------2---2---2---2---2---2---2-------2-- 
D--0-------1-------2---------------0-------1-------2---------------- 
A------------------------------------------------------------------- 
E------------------------------------------------------------------- 
   If this gets me home then i'll be yours 
E------------------------------------------------------------------- 
B------0-------0-------0---3-1-0-------0-------0-------0-----0------ 
G----2---2---2---2---2---2-------2---2---2---2---2---2---2-----2---- 
D--0-------1-------2---------------0-------1-------2-------2-----2-- 
A------------------------------------------------------------------- 
E------------------------------------------------------------------- 
   Last plane to leave well it's a back    seat    clause 
E------------------------------------------------------------------- 
B------0-------0-------0---3-1-0-------0-------0-------0---3-1-0---- 
G----2---2---2---2---2---2-------2---2---2---2---2---2---2-------2-- 
D--0-------1-------2---------------0-------1-------2---------------- 
A------------------------------------------------------------------- 
E------------------------------------------------------------------- 
   You never call since you found god 
E------------------------------------------------------------------------------------- 
B------0-------0-------0---3-1-0-------0-------0-------0-----0-----0-----0-----0------ 
G----2---2---2---2---2---2-------2---2---2---2---2---2---2-----2-----2-----2-----2---- 
D--0-------1-------2---------------0-------1-------2-------2-----2-----2-----2-----2-- 
A------------------------------------------------------------------------------------- 
E------------------------------------------------------------------------------------- 
   I love you more cause it's a    back    seat    clause 
E------------------------------------------------------------------1-1-1-1-1-1-1-1--0-0-0-0-0--0-------0 
B----3---1-----0-------0---------------3---1-----0-------1---------3-3-3-3-3-3-3-3--1-1-1-1-1--3-------1 
G----2---2--------2-------2------2-----0---0-------0---0---0---0---2-2-2-2-2-2-2-2--2-2-2-2-2--4-------2 
D----2---2-----------2-------2---------2---2---------2-------2-----0-0-0-0-0-0-0-0--3-3-3-3-3--5-------2 
A--0-----------------------------------3---3-----------------------------------------------------------0 
E------------------------------------------------------------------------------------------------------- 
     I'm still running away with you   I'm still running away with you 
E------------------------------------------------------------------- 
B------0-------0-------0---3-1-0-------0-------0-------0---3-1-0---- 
G----2---2---2---2---2---2-------2---2---2---2---2---2---2-------2-- 
D--0-------1-------2---------------0-------1-------2---------------- 
A------------------------------------------------------------------- 
E------------------------------------------------------------------- 
       You are the one that I have found 
E------------------------------------------------------------------- 
B------0-------0-------0---3-1-0-------0-------0-------0-----0------ 
G----2---2---2---2---2---2-------2---2---2---2---2---2---2-----2---- 
D--0-------1-------2---------------0-------1-------2-------2-----2-- 
A------------------------------------------------------------------- 
E------------------------------------------------------------------- 
         A myste---ry     that has come    a------round 
E------------------------------------------------------------------- 
B------0-------0-------0---3-1-0-------0-------0-------0-----0------ 
G----2---2---2---2---2---2-------2---2---2---2---2---2---2-----2---- 
D--0-------1-------2---------------0-------1-------2-------2-----2-- 
A------------------------------------------------------------------- 
E------------------------------------------------------------------- 
      All lonely souls must find a friend 
E------------------------------------------------------------------------------------- 
B------0-------0-------0---3-1-0-------0-------0-------0-----0-----0-----0-----0------ 
G----2---2---2---2---2---2-------2---2---2---2---2---2---2-----2-----2-----2-----2---- 
D--0-------1-------2---------------0-------1-------2-------2-----2-----2-----2-----2-- 
A------------------------------------------------------------------------------------- 
E------------------------------------------------------------------------------------- 
       You are the means   to a    stop    start   end 
E------------------------------------------------------------------1-1-1-1-1-1-1-1--0-0-0-0-0-0-0-0- 
B----3---1-----0-------0---------------3---1-----0-------1---------3-3-3-3-3-3-3-3--1-1-1-1-1-1-1-1- 
G----2---2--------2-------2------2-----0---0-------0---0---0---0---2-2-2-2-2-2-2-2--2-2-2-2-2-2-2-2- 
D----2---2-----------2-------2---------2---2---------2-------2-----0-0-0-0-0-0-0-0--3-3-3-3-3-3-3-3- 
A--0-----------------------------------3---3-------------------------------------------------------- 
E--------------------------------------------------------------------------------------------------- 
     I'm still running away with you   I'm still running away with you 
E------------------------------------------------------------------1-1-1-1-1-1-1-1--0-0-0-0-0--0-------0 
B----3---1-----0-------0---------------3---1-----0-------1---------3-3-3-3-3-3-3-3--1-1-1-1-1--3-------1 
G----2---2--------2-------2------2-----0---0-------0---0---0---0---2-2-2-2-2-2-2-2--2-2-2-2-2--4-------2 
D----2---2-----------2-------2---------2---2---------2-------2-----0-0-0-0-0-0-0-0--3-3-3-3-3--5-------2 
A--0-----------------------------------3---3-----------------------------------------------------------0 
E------------------------------------------------------------------------------------------------------- 
     I'm still running away with you   I'm still running away with you 
E------------------------------------------------------------------- 
B------0-------0-------0---3-1-0-------0-------0-------0---3-1-0---- 
G----2---2---2---2---2---2-------2---2---2---2---2---2---2-------2-- 
D--0-------1-------2---------------0-------1-------2---------------- 
A------------------------------------------------------------------- 
E------------------------------------------------------------------- 
E------------------------------------------------------------------------------------- 
B------0-------0-------0---3-1-0-------0-------0-------0-----0-----0-----0-----0------ 
G----2---2---2---2---2---2-------2---2---2---2---2---2---2-----2-----2-----2-----2---- 
D--0-------1-------2---------------0-------1-------2-------2-----2-----2-----2-----2-- 
A------------------------------------------------------------------------------------- 
E------------------------------------------------------------------------------------- 
E------------------------------------------------------------------1-1-1-1-1-1-1-1--0-0-0-0-0-0-0-0- 
B----3---1-----0-------0---------------3---1-----0-------1---------3-3-3-3-3-3-3-3--1-1-1-1-1-1-1-1- 
G----2---2--------2-------2------2-----0---0-------0---0---0---0---2-2-2-2-2-2-2-2--2-2-2-2-2-2-2-2- 
D----2---2-----------2-------2---------2---2---------2-------2-----0-0-0-0-0-0-0-0--3-3-3-3-3-3-3-3- 
A--0-----------------------------------3---3-------------------------------------------------------- 
E--------------------------------------------------------------------------------------------------- 
     I'm still running away with you   I'm still running away with you 
E------------------------------------------------------------------1-1-1-1-1-1-1-1--0-0-0-0-0-0-0-0- 
B----3---1-----0-------0---------------3---1-----0-------1---------3-3-3-3-3-3-3-3--1-1-1-1-1-1-1-1- 
G----2---2--------2-------2------2-----0---0-------0---0---0---0---2-2-2-2-2-2-2-2--2-2-2-2-2-2-2-2- 
D----2---2-----------2-------2---------2---2---------2-------2-----0-0-0-0-0-0-0-0--3-3-3-3-3-3-3-3- 
A--0-----------------------------------3---3-------------------------------------------------------- 
E--------------------------------------------------------------------------------------------------- 
     I'm still running away with you   I'm still running away with you 
E------------------------------------------------------------------1-1-1-1-1-1-1-1--0-0-0-0-0-0-0-0- 
B----3---1-----0-------0---------------3---1-----0-------1---------3-3-3-3-3-3-3-3--1-1-1-1-1-1-1-1- 
G----2---2--------2-------2------2-----0---0-------0---0---0---0---2-2-2-2-2-2-2-2--2-2-2-2-2-2-2-2- 
D----2---2-----------2-------2---------2---2---------2-------2-----0-0-0-0-0-0-0-0--3-3-3-3-3-3-3-3- 
A--0-----------------------------------3---3-------------------------------------------------------- 
E--------------------------------------------------------------------------------------------------- 
                        It's all the same             It's all the same 
E------------------------------------------------------------------1-1-1-1-1-1-1-1--0-0-0-0-0--0-------0 
B----3---1-----0-------0---------------3---1-----0-------1---------3-3-3-3-3-3-3-3--1-1-1-1-1--3-------1 
G----2---2--------2-------2------2-----0---0-------0---0---0---0---2-2-2-2-2-2-2-2--2-2-2-2-2--4-------2 
D----2---2-----------2-------2---------2---2---------2-------2-----0-0-0-0-0-0-0-0--3-3-3-3-3--5-------2 
A--0-----------------------------------3---3-----------------------------------------------------------0 
E------------------------------------------------------------------------------------------------------- 
                        It's all the same             It's all the same 
http://home.kooee.com.au/grimreaper/momo/tabs/backseatclause.txt