E |--3---2----1---0---3---3---2---0---4----10 
B |--0---0----0---1---1---4---3---2---4----11 
G |--0---0----0---0---0---3---2---2---5----10 
D |--0---0----0---2---2---5---0---2---6----12 
A |--2---2----2---3---3-----------0---6----10 
E |--3---3----3-----------------------4----10 
(intro) 
E |--2-3--3--3-5-3-2-2--2--2-5-3-1-1--1--1-5-3-0-3-0--- 
B |--0-0--0--------0-0--0--------0-0--0--------1-1-1--- 
G |--0-0--0--------0-0--0--------0-0--0--------0-0-0--- 
D |--0-0--0--------0-0--0--------0-0--0--------2-2-2--- 
A |--2-2--2--------2-2--2--------2-2--2--------3-3-3--- 
E |--3-3--3--------3-3--3--------3-3--3---------------- 
Blistered  by the sun Blisters upon my bed  mamma said to go ahead 
Talking to no one and everyone make a life of what you know is true 
And maybe we could have found my sink and i'll take half looking through the hourglass 
Just what i needed  just why we drowned never needed anyone but you 
Confusion is set to lead the blind 
Trapped by the thoughts left in your mind 
(Alex picks this riff over the Chorus) 
E |--------15---- 
B |-----15----15- 
G |--12---------- 
Melting away 
Melting away 
Now                        with your friends 
   Look around your hands are tied     talk across another lie 
You sit happy             until the end 
           ring side seats 
When it's night                     when it falls 
            sick jokes are played on you       never know quite what to do 
I get so lonely          I feel so small 
           our laughter 
With my heart                        on my sleeve 
          what's here and what's for sale 
I will try           to relieve 
         sink deep 
After 1st & 3rd "away"'s 
A |--3-3--1-3-5-3-1- 
After 2nd & 4th "away"'s 
D |--^5-3----------- 
A |--------5-3-1---- 
E |--------------3-- 
Melting away 
Melting away 
Melting away 
Melting away 
Watch you all disappear 
E |------6--6-6-6--6-6--6-6--6-6-6- 
B |------8--8-8-8--8-8--8-8--8-8-8- 
G |------8--8-8-8--8-8--8-8--8-8-8- 
D |------8--8-8-8--8-8--8-8--8-8-8- 
A |------6--6-6-6--6-6--6-6--6-6-6- 
E |--3-5-6--6-6-6--6-6--6-6--6-6-6- 
E |------6--6-6-6--6-6--6-6--6-6-6- 
B |------8--8-8-8--8-8--8-8--8-8-8- 
G |------8--8-8-8--8-8--8-8--8-8-8- 
D |------8--8-8-8--8-8--8-8--8-8-8- 
A |------6--6-6-6--6-6--6-6--6-6-6- 
E |--3-5-6--6-6-6--6-6--6-6--6-6-6- 
down (you won't get up if you don't get down) 
E |------6--6-6-6--6-6--6-6--6-6-6- 
B |------8--8-8-8--8-8--8-8--8-8-8- 
G |------8--8-8-8--8-8--8-8--8-8-8- 
D |------8--8-8-8--8-8--8-8--8-8-8- 
A |------6--6-6-6--6-6--6-6--6-6-6- 
E |--3-5-6--6-6-6--6-6--6-6--6-6-6- 
will you know 
Melting away 
Melting away 
Melting away 
Melting away 
Watch you all disappear 
       /A 
E |--2-3--3--3-5-3-2-2--2--2-5-3-1-1--1--1-5-3-0-3-0--- 
B |--0-0--0--------0-0--0--------0-0--0--------1-1-1--- 
G |--0-0--0--------0-0--0--------0-0--0--------0-0-0--- 
D |--0-0--0--------0-0--0--------0-0--0--------2-2-2--- 
A |--2-2--2--------2-2--2--------2-2--2--------3-3-3--- 
E |--3-3--3--------3-3--3--------3-3--3----------------