MOMO (A.Wasiliev)  
Tabbed by MOMO & CC 
Guitar 1 (repeat riff twice) 
E --7-77--77--77--7--5-55--55--55--5--4-44--44--44--4--0-00--00--0--------- 
B ---5---5---5---5-5--5---5---5---5-5--5---5---5---5-5--5---5---5-5-33-2-0- 
G ------------------------------------------------------------------------- 
D ------------------------------------------------------------------------- 
A ------------------------------------------------------------------------- 
E ------------------------------------------------------------------------- 
Guitar 2 (come in on second riff - chords and bass pattern) 
E --0----------------0----------------0----------------0---------------- 
B --0----------------3----------------0----------------3---------------- 
G --1----------------1----------------1----------------1---------------- 
D --2-----20------20-2-----20---------2-----20------20-2-----20--------- 
A --220202---20202---220202---2020220-220202---20202---220202---2020220- 
E --0-------0--------0-------0--------0-------0--------0-------0-------- 
We're all blowing bullshit, bullshit's blowing 
We had a vision but we lost our sight 
Brothers in the back room, in the smack room 
Lighting it up and pushing it out 
E --0--------------0----0---0--0---- 
B --0--------------0----2---3--0---- 
G --1-----------------------7--6---- 
D --2-----------------------7--7---- 
A --2------------------------------- 
E --0---------00-------------------- 
    Mutha Mutha    save our soul 
E --0--------------0-----0---0--0---- 
B --0--------------0-----2---3--0---- 
G --1------------------------7--6---- 
D --2------------------------7--7---- 
A --2------------------------------- 
E --0---------00-------------------- 
    Brutha Brutha  don't let go 
Looking for something, something for nothing 
Can't help now cause my hands are tied 
Maybe you could stay a while 
Spread your wings and learn to fly 
E --0--------------0----0---0--0---- 
B --0--------------0----2---3--0---- 
G --1-----------------------7--6---- 
D --2-----------------------7--7---- 
A --2------------------------------- 
E --0---------00-------------------- 
    Mutha Mutha    save our soul 
E --0--------------0-----0---0--0---- 
B --0--------------0-----2---3--0---- 
G --1------------------------7--6---- 
D --2------------------------7--7---- 
A --2------------------------------- 
E --0---------00-------------------- 
    Brutha Brutha  don't let go 
E ---------------------------------------- 
B -------8-------------------8------------ 
G -------7-------------------7------------ 
D -------6-----5--7----------6-----5--7--- 
A -------7-----5--7----------7-----5--7--- 
E --0-0--------3--5-----0-0--------3--5--- 
E ---------------------------------------- 
B -------8-------------------8------------ 
G -------7-------------------7------------ 
D -------6-----5--7----------6------------ 
A -------7-----5--7----------7------------ 
E --0-0--------3--5-----0-0------7-6-5-3-- 
E ---------------------------------------- 
B -------8-------------------8------------ 
G -------7-------------------7------------ (x3) 
D -------6-------------------6------------ 
A -------7-------------------7------------ 
E --0-0------7-6-5-3----0-0------5-6-7-3-- 
E ----------------------------------------0---- 
B -------8-------------------8------------0---- 
G -------7-------------------7------------1---- 
D -------6-------------------6------------2---- 
A -------7-------------------7------------2---- 
E --0-0------7-6-5-3----0-0------5-6-7-3--0---- 
E --7-77--77--77--7--5-55--55--55--5--4-44--44--44--4--0-00--00--0--------- 
B ---5---5---5---5-5--5---5---5---5-5--5---5---5---5-5--5---5---5-5-33-2-0- 
G ------------------------------------------------------------------------- 
D ------------------------------------------------------------------------- 
A ------------------------------------------------------------------------- 
E ------------------------------------------------------------------------- 
E --0--------------0----0---0--0---- 
B --0--------------0----2---3--0---- 
G --1-----------------------7--6---- 
D --2-----------------------7--7---- 
A --2------------------------------- 
E --0---------00-------------------- 
    Mutha Mutha    save our soul 
E --0--------------0-----0---0--0---- 
B --0--------------0-----2---3--0---- 
G --1------------------------7--6---- 
D --2------------------------7--7---- 
A --2------------------------------- 
E --0---------00-------------------- 
    Brutha Brutha  don't let go 
E ---------------------------------------- 
B -------8-------------------8------------ 
G -------7-------------------7------------ (x3) 
D -------6-------------------6------------ 
A -------7-------------------7------------ 
E --0-0------7-6-5-3----0-0------5-6-7-3-- 
Ad lib - Don't let go now, don't let go 
         Save our soul now, save our soul etc... 
E ----------------------------------------0---- 
B -------8-------------------8------------0---- 
G -------7-------------------7------------1---- 
D -------6-------------------6------------2---- 
A -------7-------------------7------------2---- 
E --0-0------7-6-5-3----0-0------5-6-7-3--0---- 
http://home.kooee.com.au/grimreaper/momo/tabs/momo.txt