Sorry if the lyrisc are wrong, but if you know  
James Reyne, this song is actually one that he  
sings reasonable clearly, so you can imagine  
some of his others!!!! 
The solo's and intro may have the odd difference,  
but this should give you somewhere to start and  
it should be fairly close. 
Chris 
[email protected] 
INTRO 
GUITAR 1 
    (3  times) 
GUITAR 2 
(bottom 2 strings) 
A-----0--3--0--5--0--7-----------2-----3-----5-- 
E-----------------------------3-----3-----3----- 
then 
A--------------2--------------------------------- 
E-----3--0--3-----3------------------------------ 
Verse 1: 
       		G 
Wanna tell you 'bout my Frenda 
He got hit by a Fender 
But he'll soon be on the menda 
He's of the male genda 
Pre Chorus: 
Glad to see that he's on his way 
He's not for Buriel today 
Chorus: 
Because he's in    He's indisposed 
Because he's in  yeah yeah He's indisposed 
Verse 2: 
Found him outside the dry cleaners 
Ooh the drivers misdemeanors 
I've never seen a face so greena 
He looks a like the cats dinner  
Pre Chorus: 
Chorus:I 
Solo: 
e-------------------------------------------------- 
B-------------------------------------------------- 
G----------------------------------4-2------------- 
D--------2-4-2-------------------2-----0-2-0------- 
A--2-2-4-------4-2-4-2-----2-2-4------------------- 
E-------------------------------------------------- 
e------------------------------------------------------ 
B------------------------------------------------------ 
G------------------------------------2-4-2------------- 
D--------2-4-2-------------------2-4-------4-2--2-4---- 
A--2-2-4-------4-2-4-2-----2-2-4--------------------0-- 
E------------------------------------------------------ 
Repeat Intro: 
He got hit by a car 
Now he's lying on the tar 
Had an experience bizarre 
Not unlike peninsular ra ra hey 
Pre Chorus: 
Chorus: