Tabbed By Freezex61 
The main bass riff behind the song 
e------------------------------------------ 
B------------------------------------------ 
G------------------------------------------ 
D--3-----3----3-----3---5-----5---5-----5-- 
A----5-3--------5-3-------7-5-------7-5---- 
E------------------------------------------ 
INTRO (and after the 2nd chorus) 
e-------------------------------------------------------------------- 
B------------------------------------------------------------------- 
G-------------------------------------------------------------------- 
D----0-----------------0--------------------------5-5-5-----0--------- 
A-------3-0-2-0-----------3-0-2------3-0-2------3--------------3-0-2--- 
E-1--------------3---1------------1-----------3----------1-------------- 
Convict state It just don't rate 
He want to get higher 
Apple Isle, the inbred smile 
He's going to get by'a 
His mother's hand He could not stand 
He left for the islands 
To fish and hunt He take a punt 
The New Guinea Highlands 
Ohhh Errol, I would give everything just to be like him 
He had to go to Sirocco 
He's sailin the high seas 
Hollywood, Captain Blood 
He's billing the Nazi's 
Took a rebel stand Contraband 
Coast of Mexico 
He want to pounce Like an animal 
To girls he just can't say no 
Ohhh Errol, I would give everything just to be like him 
Ohhh Errol, I would give everything just to be like him 
He had them all Screamin for more 
He play the wild scene 
Ah scandalise, no compromise 
He's down on his knees 
Swashbuckling he was the King 
The toast of Tinseltown 
They build him up They took it all 
And then they just cut him down 
Ohhh Errol, I would give everything just to be like him 
Ohhh Errol, I would give everything just to be like him 
(Bridge bass bit) 
e--------------------------------------------------- 
B--------------------------------------------------- 
G-----------5-----------5------------7-----------7-- 
D----3----3------3----3-------5----5------5----5---- 
A-------5-----------5------------7-----------7------ 
E-1------------------------3------------------------ 
Don?t tell me it?s true, I don?t wanna hear about it 
Don?t tell me it?s true, I don?t wanna hear about it 
Don?t tell me it?s true, I don?t wanna hear about it 
Don?t tell me it?s true, I don?t wanna hear about it 
Solo: over the chorus 
Ohhh Errol, I would give everything just to be like him 
Ohhh Errol, I would give everything just to be like him 
Ohhh Errol, I would give everything just to be like him 
Ohhh Errol, I would give everything just to be like him