Transcribed by: Glenn Higgins 
Riff 1 ()
---------------------------- 
---------------------------- 
---------0---------7-------- 
-------2---------9---------- 
-----2---------9------------ 
---0---------7--------------
---2-----------2-------------- 
----3-----------3------------- 
---2-----------2-------------- 
---x-----------x-------------- 
---x--------------4----------- 
---x------------------------- 
  (bass) 
Intro 
Verse 
bass  
Meet me down by the jetty landing 
Where the the pontoons bump and spray 
bass 
I see the others reading, standing 
As the Manly Ferry cuts its way to Circular Quay 
bass
Hear the Captain blow his whistle 
So long shes been away 
bass 
I miss our early morning wrestle 
Not a very happy way to start the day 
She don't like That kind of behaviour x 2 
So_____ throw down your guns 
Don't be so reckless 
Throw down your guns 
Don't be so
bass 
Feel like Scott of the Antarctic 
Base camp too far away 
bass 
A Russian sub beneath the Arctic 
Burke and Wills and camels 
Initials in the tree (run down with notes  string)
She don't like that kind of behaviour x 2 
Chorus 
Guitar Solo (Chords same as Verses) 
Chorus fades with soloing over the top.