Sorry about the lack of lyrics, but James Reyne 
is impossible to Decipher........... Chris 
INTRO: (top 3 strings) 
e------------------------------------------------- 
B--18b(20)-15--17^^^^^^----15-15---12^^^------12-- 
G-----------------------------------------14------ 
e-----------------------15------------------------ 
B------15--------------------------18b(20)18--17-- 
G---14----14-14------14----14-14------------------ 
e-----------15------------------------------------ 
B---17b(18)------15---13----15-------------------- 
G------------------------------------------------- 
Verse (with echo & chorus)  
Things are going allright........ 
PRE-CHORUS(distortion) 
e--------------------------- 
B--------------------------- 
G--------------------------- 
D--0--2--0--2--0------------ 
A-----------------3--2------ 
E--------------------------- 
Chorus 
Solo: 
If anyone wants the solo, email me at 
[email protected]