intro
E||---------2r------0--2--|-----------------------------|
B||---------3b---3--------|---------5--0h5h3h0----0--3--|
G||-----------------------|--2-----------------4--------|
D||--0--------------------|-----------------------------|
A||-----------------------|-----------------------------|
E||-----------------------|-----------------------------|
------------------------|------------------------|---------2r------0--2--|
-------3----------------|--------3---------------|---------3b---3--------|
-------4----------------|-----0----------0-------|-----------------------|
--5---------0--3--5-----|--5--------4-------2----|--0--------------------|
---------------------5--|------------------------|-----------------------|
------------------------|------------------------|-----------------------|
-----------------------------|------------------------|------------------------|
---------5--0h5h3h0----0--3--|-------3----------------|--------3---------------|
--2-----------------4--------|-------4----------------|-----0----------0-------|
-----------------------------|--5---------0--3--5-----|--5--------4-------2----|
-----------------------------|---------------------5--|------------------------|
-----------------------------|------------------------|------------------------|
primeiro solo
----------------------|--------------------|------------------------|
-------------7-----7--|--7-----------------|--7---------------------|
----------9b----9b----|--9r---9------------|--9b-9--7---------------|
----------------------|--------------------|-----------7--8/-9------|
----------------------|--------------------|------------------------|
----------------------|--------------------|------------------------|
-------------------------|-----------------------|--------------------|
----7--8--7-----7-----7--|-----------------------|--10b---------------|
-------------9b----9b----|--9r-----4--7h4h7------|--------------------|
-------------------------|-----------------------|--------------------|
-------------------------|-----------------------|--------------------|
-------------------------|-----------------------|--------------------|
-----------------------|----------7---------------|-------------------|
--10r-8--8/-------x----|-------7-----10--7--------|-------------------|
-----------------------|----9b--------------7-----|--7----------------|
-----------------------|-----------------------7--|-------------------|
-----------------------|--------------------------|-------------------|
-----------------------|--------------------------|-------------------|
segundo solo
------------------|-------------------||----|----|--------------------|
------------------|-------------------||----|----|--------------------|
------------------|-------------------||----|----|--------------------|
------------------|-------------------||----|----|-------------2------|
------------------|-------------------||----|----|------5-------------|
------------------|-------------------||----|----|--------------------|
-------------------|-----------------------|----------------------|
-------------------|-----------------------|----------------------|
-------------------|-----------------------|--7-------------------|
--4----------------|--4/-7--7--------7h-9--|-----9----------------|
-------------------|-----------------------|--------7----------7--|
-------------------|-----------------------|----------------------|
--------------------|--------------------|--------------------|
--------------------|--------------------|--------------------|
--------------------|----9b-----7--------|-----7b-------------|
--------------------|--------------------|--x-----------------|
--7/-------x--------|--------------------|--------------------|
--------------------|--------------------|--------------------|
---------------------|--------------------|-----------------------|
--7------------------|------------10b-----|--10b-------10r--------|
--9r-----7--------7~-|--------------------|------------------9----|
---------------------|--------------------|-----------------------|
---------------------|--------------------|-----------------------|
---------------------|--------------------|-----------------------|
----------5--------8--7--|--------9h-10---------------10--|
-------5-----8--5--------|--8------------10-----10/12-----|
----7b-------------------|-----7-------------9------------|
-------------------------|--------------------------------|
-------------------------|--------------------------------|
-------------------------|--------------------------------|
--12r---10------15r-------|--17r-----17/-x---------|
------------12------------|------------------------|
--------------------------|--------------------7b--|
--------------------------|------------------------|
--------------------------|------------------------|
--------------------------|------------------------|
----5---------5-------------------------|-----------------------------------|
--5---8-5---5---8-5-0-5-3-0-5-3-0-5-3-0-|-----------------------------------|
----------7b----------------------------|--4-2-0-4-2-0----------------------|
----------------------------------------|--------------5-3-0-3-2-0----------|
----------------------------------------|--------------------------3-2-0-5/-|
----------------------------------------|-----------------------------------|
----------------------------|--------------------|---------------------|
----------------------------|--------------------|---------------------|
------7-----------7---------|--------------------|---------------------|
------7----9--10-----10--9--|--12----------------|----------12/---x----|
--10------------------------|--------------------|---------------------|
----------------------------|--------------------|---------------------|
Let me tell you about two young lovers that lived down the coast
She was such a pretty thing ? man what a host
Evening time she sets the table for four
Some friends are coming round tonight
He?s out on the town trying to score
Woke op early this morning somethings got his mind
Cursing the night before breakfast at nine
Felt him restless woah all through the night
You know restless all through the night
She sees that something is wrong with him
She don?t want to cry she just wants to know why
Oh, oh, oh, oh... oh, no not you again  (2 x)
Don?t own a swimming pool not even a color TV
Works awful hard somedays she lets him be
You know it ain?t looking good for them no loving no more
Some friends are coming round tonight he?s out on the town
He?s knocking on the wrong door
Oh, oh, oh, oh... oh, no not you again, she?s gone, she?s gone 
Oh, oh, oh, oh... oh, no not you again, she?s gone, she?s gone 
Oh, oh, oh, oh... oh, no not you again
Oh, oh, oh, oh... oh, no not you again
...
_______________________________________________________
Contribuição: Cibeli Gerlach([email protected])
Correção: Rodrigo Cascaes ([email protected])