INTRO:	
  1   2   3   4   1   2   3   4   1   2   3   4   1   2   3   4
E|----------------------------------------------------------------|
B|--/----/--------------------------------5--9--------------------|
G|(7b)9b7b9---------------------9b7-5--7--------------------------|
D|-----\-------------------------\--------------------------------|
A|----------------------------------------------------------------|
E|----------------------------------------------------------------|
  1   2   3   4   1   2   3   4   1   2   3   4   1   2   3   4
E|----------------------------------------------------------------|
B|------8------------------------------/--5-9--/---/--------------|
G|--------7---5---7-------------------7b8-----7b9-7b9-7---------5-|
D|------------------7---------------------------------------------|
A|----------------------------------------------------------------|
E|----------------------------------------------------------------|
  1   2   3   4   1   2   3   4   1   2   3   4   1   2   3   4
E|----------------------------------------------------------------|
B|-/------8-----------------------9--/----------------------------|
G|7b9-------9b7-5-5h7---------------7b8---7-5-----7---------------|
D|-----------\--------------------------------------5---5---------|
A|----------------------------------------------------------------|
E|----------------------------------------------------------------|
  1   2   3   4   1   2   3   4   1   2   3   4   1   2   3   4
E|----------------------------------------10s8------12----12-10-10|
B|-----/--10p8h10-----10--8s10------------10s8----13-----------13-|
G|----7b9-------------9---7s9-------------------------------------|
D|----------------------------------------------------------------|
A|----------------------------------------------------------------|
E|----------------------------------------------------------------|
  1   2   3   4   1   2   3   4
E|------/-------------------------|
B|10--12b13-----------------------|
G|--------------------------------|
D|----------Campbell-Lane...------|
A|--------------------------------|
E|--------------------------------|
Campbell Lane, and through the window curtain rain
Long night gone, yellow day, the speed shivers melt away
CHORUS:
Six o'clock, I'm going down
The coffee's hot and the toast is brown
Hey, Streetsweeper, clear my way
Sweethearts breakfast the best in town
Oh, o-o-oh, breakfast at Sweethearts
Oh, o-o-oh, breakfast at Sweethearts
Hey, Anne Maria - it's always good to see her
She don't smile or flirt, she just wears that mini skirt
Drunks come in.  Paper bag, brandivino
Dreams fly away as she pours another cappucino
CHORUS
SOLO:
  1   2   3   4   1   2   3   4   1   2   3   4   1   2   3   4
E|----------------------------------------------------------------|
B|------/---------------------------------13----------------------|
G|----10b12-----------------------------12--------14p12-12-12-12--|
D|--------------------------------------------------------------14|
A|----------------------------------------------------------------|
E|----------------------------------------------------------------|
  1   2   3   4   1   2   3   4   1   2   3   4   1   2   3   4
E|----------------------------------------------------------------|
B|-----------------10-10-10-10-10-10s\----10s13-------13--15b17---|
G|12------------------------------------------------14------------|
D|----------------7--7--7--7--------------------------------------|
A|----------------------------------------------------------------|
E|----------------------------------------------------------------|
  1   2   3   4   1   2   3   4   1   2   3   4   1   2   3   4
E|----------------------------------------------------------------|
B|13h15-----------------------------------------------------------|
G|------14------------(organ-solo)--------------------------------|
D|----------------------------------------------------------------|
A|----------------------------------------------------------------|
E|----------------------------------------------------------------|
REPEAT x2:
Six o'clock, I'm going down
The coffee's hot and the toast is brown
Hey, Streetsweeper, clear my way
 - 2nd time only)
Sweethearts breakfast the best in town
  1   2   3   4   1   2   3   4   1   2   3   4   1   2   3   4
E|--------13b15---------------------------12-12-------------------|
B|--------------------------------17b15-13------------------------|
G|------14--------------------------\-----------------------------|
D|----------------------------------------------------------------|
A|----------------------------------------------------------------|
E|----------------------------------------------------------------|
                                  Breakfast at      Yeah...
                                  Sweethearts