Verse/chorus riff 
-----------------------------------------------------------------------| 
-----------------------------------------------------------------------| 
-------------------------------2---4---2---4---2---4---2---4-----------| 
-2---4---2---4---2---4---2---4-0-0-0-0-0-0-0-0-0-0-0-0-0-0-0-----------| 
-0-0-0-0-0-0-0-0-0-0-0-0-0-0-0-------------------------------2---4---2-| 
-------------------------------------------------------------0-0-0-0-0-| 
----------------------------------------------------| 
----------------------------------------------------| 
----------------------------------------------------|   Repeat through 
--------------------2---4---2---4---2---4---2---4---|    whole song 
--4---2---4---2---4-0-0-0-0-0-0-0-0-0-0-0-0-0-0-0---| 
0-0-0-0-0-0-0-0-0-0---------------------------------| 
Chorus riff 
with verse riff as rythm (unless piano playing) 
Goodbye                Goodbye               Goodbye 
--------10-10-10-10-10---------10-10-10-10-10---------10-10-10-10-10-----| 
--------10-10-10-10-10---------10-10-10-10-10---------9--9--9--9--9------| 
--------9--9--9--9--9----------9--9--9--9--9----------9--9--9--9--9------| 
--------9--9--9--9--9----------9--9--9--9--9----------9--9--9--9--9------| 
-------------------------------------------------------------------------| 
-------------------------------------------------------------------------| 
Goodbye        Goodbye now babe, I wont be back for long 
--------10-10-10-10-10-----------------------------------------------| 
--------9--9--9--9--9------------------------------------------------| 
--------9--9--9--9--9------------------------------------------------| 
--------9--9--9--9--9----------------------------------2---4---2---4-| 
------------------------2---4---2---4---2---4---2---4--0-0-0-0-0-0-0-| 
------------------------0-0-0-0-0-0-0-0-0-0-0-0-0-0-0-0--------------| 
                  (Repeat as the song goes) 
----------------------------------| 
----------------------------------| 
----------------------------------| 
--2---4---2---4-------------------| 
0-0-0-0-0-0-0-0-------------------| 
----------------------------------| 
END