Transcribed by Greg O'Beirne ([email protected]) 
Intro: 
----- 
  G    (four bars with doodling) 
Verse: 
----- 
Chords:  GGGG CCCC AAAA DDDD 
Lyrics: 
         I am always cursed to be alone everywhere 
         with the same old hair style 
         I am always cursed to live out my life alone 
         without telephone for company 
Pre-Chorus 
---------- 
Chords:  GGGG CCC                               D    D  C     B 
Lyrics:  I remembered your face                 when we first met 
         And I remembered the place where...    where we first met 
         G  (four bars) 
         I'm Alone..... 
Chorus 
------ 
Chords:  GG C    AA D 
Lyrics:  I'm alone  (I'm Alone)        x 3 
         I'm alone... 
Little Solo 
----------- 
   A 
   1 + 2 + 3 + 4 + 1 + 2 + 3 + 4 + 1 + 2 + 3 + 4 + 1 + 2 + 3 + 4 +   
E------------------------------------------------------------------ 
B------------------------------------------------------------------ 
G----------------------7---9--/11--9---7--------------------------- 
D--------------7---9---------------------------9---------------\--- 
A--7---9---10------------------------------------------------------ 
E------------------------------------------------------------------ 
Verse: 
----- 
Chords:  GGGG CCCC AAAA DDDD 
Lyrics: 
         With or without or with you I do not compare 
         So what else is there for me to do 
         The cast of my life only just includes me... 
Pre-Chorus 
---------- 
Chords:  G G G G           C C C                D    D  C     B 
Lyrics:  I remembered your face                 when we first met 
         And I remembered your face             when we last  met 
         G (four bars) 
Chorus 
------ 
Chords:  GG C    AA D 
Lyrics:  I'm alone  (I'm Alone)        x 3 
         I'm alone... 
Bridge 
------ 
   E       D       C               E       D       C 
   1 + 2 + 3 + 4 + 1 + 2 + 3 + 4 + 1 + 2 + 3 + 4 + 1 + 2 + 3 + 4 +   
E------------------------------------------------------------------ 
B--8-------10------8---------------8-------10------8--------------- 
G------------------------------------------------------------------ 
D------------------------------------------------------------------ 
A------------------------------------------------------------------ 
E------------------------------------------------------------------ 
           Get your keys out...            Get your keys out... 
   E       D       C       B 
   1 + 2 + 3 + 4 + 1 + 2 + 3 + 4 +   
E---------------------------------- 
B--8-------10-----/13------12------ 
G---------------------------------- 
D---------------------------------- 
A---------------------------------- 
E---------------------------------- 
           Get your keys out of my 
   A 
   1  +  2  +  3  +  4  +  1  +  2  +  3  +  4  +  
E-------------------------------------------------- 
B--10h12-10h12-10h12-10h12-10h12-10h12-10h12-10h12- 
G-------------------------------------------------- 
D-------------------------------------------------- 
A-------------------------------------------------- 
E-------------------------------------------------- 
   house...                 Coz I... 
   D 
   1  +  2  +  3  +  4  +  1  +  2  +  3  +  4  +  
E-------------------------------------------------- 
B--10h12-10h12-10h12-10h12-10h12-10h12-10h12-12~\-- 
G-------------------------------------------------- 
D-------------------------------------------------- 
A-------------------------------------------------- 
E-------------------------------------------------- 
   want...             to be...       alone........ 
Chorus 
------ 
Chords:  GG C    AA D 
Lyrics:  I'm alone  (I'm Alone)        x 3 
         I'm alone... 
Outro 
----- 
   A  
   1 + 2 + 3 + 4 + 1 + 2 + 3 + 4 + 1 + 2 + 3 + 4 + 1 + 2 + 3 + 4 +   
E------------------------------------------------------------------ 
B------------------------------------------------------------------ 
G----------------------7---9---11--9---7--------------------------- 
D--------------7---9---------------------------9-------7-------5--- 
A--7---9---10------------------------------------------------------ 
E------------------------------------------------------------------ 
   G 
   1 + 2 + 3 + 4 + 1 + 2 + 3 + 4 +  
E---------------------------------- 
B---------------------------------- 
G---------------------------------- 
D-/9-------------------------------  And finish :) 
A---------------------------------- 
E---------------------------------- 
-- 
Greg O'Beirne 
[email protected] 
http://www.uwa.edu.au/student/gobeirne/