transcribed by Ian Gray ([email protected]) 
Key: 
/    = slide up 
\    = slide down 
\/   = bend tremelo arm down then up 
b^   = bend (1/2 step) 
r    = release-bend 
n.c. = no chords are played 
Chords: 
 355333 
  x3555x 
 x3554x 
 x5453x  
Intro: 
Let all notes ring 
E---3-----3---3---3-----3---3---3-----3---2---------------- 
B---3-----3---3---3-----3---3---3-----3---3---------------- 
G---------------------------------------------------------- 
D-5---5-4---4---3---3-2---2---1---1-1---1-------0-0-0-1-0-- 
A---------------------------------------------------------- 
E---------------------------------------------------------- 
Main instrumental part: 
E----------3----------------------------------------------------------------------15-- 
B------3-6---6-5\/5------3---4-4-4-6-4-3------------------------------------------15-- 
G----3---------5\/5----5---5-------------/3---------------------------------------15-- 
D-/5-----------5\/5-------------------------/5---3-3-3-3-3-5-3-2---1-1-1-1-0---------- 
A-----------------------------------------------------------------------------1------- 
E-------------------------------------------------------------------------------3----- 
E----------3-------------------------------------------------------------------------- 
B------3-6---6-5\/5------3---4-4-4-6-4-3---------------------------------------------- 
G----3---------5\/5----5---5-------------/3------------------------------------------- 
D-/5-----------5\/5-------------------------/5---3-3-3-3-3-5-3-2---1-1-1-1-0---------- 
A-----------------------------------------------------------------------------1------- 
E-------------------------------------------------------------------------------3-15\- 
E----------------3------------------------------------8------------------------------- 
B-3-3------------3---------3-3--5b^r-3-----------10---8---------3-3---------3----3---- 
G-3-3--5b^-5-3------5b^r---3-3--5b^r-3-----------10---9---------3-3---------3----3---- 
D--------------5------------------------5-3-5----10---10--10\------------3-----5------ 
A------------------------------------------------8----10--10\-------3/5--------------- 
E-----------------------------------------------------8---8--------------------------- 
E------8--------6--------8------------------------------------------------------------ 
B-10---8----8---6---10---8---------------------------------------------15-15-16-15\--- 
G-10---9----8---7---10---9----------11----11--------12----12----14-------------------- 
D-10---10---8---8---10---10-----/12----12-12-12-/14----14-14-14-16-----0--0--1--0----- 
A-8----10---6---8----8---10----------------------------------------------------------- 
E------8--------6--------8------------------------------------------------------------ 
                                   				      <--2nd gtr-->	 
E----------3-------------------------------------------------------------------------- 
B------3-6---6-5\/5------3---4-4-4-6-4-3---------------------------------------------- 
G----3---------5\/5----5---5-------------/3------------------------------------------- 
D-/5-----------5\/5-------------------------/5---3-3-3-3-3-5-3-2---1-1-1-1-0---------- 
A-----------------------------------------------------------------------------1------- 
E--------------------------------------------------------------------------------3/--- 
E-------------15---------------------------------------------------------------------- 
B-------15-18----18-17\/17------15----16-16-16-18-16-15------------------------------- 
G----15----------------------17----17-------------------/15--------------------------- 
D-17-------------------------------------------------------/17---15-15-15-15-15-17-15- 
A------------------------------------------------------------------------------------- 
E------------------------------------------------------------------------------------- 
        n.c.  
E------------------------------------ 
B------------------------------------ 
G------------------------------------ 
D-14-----13-13-13-13-13-12----------- 
A--------------------------13-12--14- 
E------------------------------------ 
	 <---------2nd gtr----------> 
         <----refer to tab below---->  
E------------------------------------ 
B------------------------------------ 
G------------------------------------ 
D--------1--1--1--1--1--0------------ 
A--------------------------1--0---2-- 
E------------------------------------