intro 
e-/9--9---/9--9--/9--9--/9--9--/9--9---/9--9----9--------------- 
B-/8--8---/8--8--/8--8--/8--8--/8--8---/8--8----9--------------- 
G--------------------------------------------------------------- 
D--------------------------------------------------------------- 
A--------------------------------------------------------------- 
E--------------------------------------------------------------- 
Verse 
e---7-7-6----4-----2--0-0-0------------------------------------- 
B---9-9-8----5-----4--2-2-2------------------------------------- 
G---9-9-8----6-----4--2-2-2------------------------------------- 
D---9-9-8----6-----4--2-2-2------------------------------------- 
A-7-7-7-6--4-4---2-2--0-0-0-------2b---------------------------- 
E-0--------0-----0----0-0-0-0-1-2----2-1-0---------------------- 
Chorus Leadin 
CHORUS 
OTHER BIT 
END SOLO 
e-0-12-11-9/7-7-9-11-11-9-7---7-9-7-9-7-0-5-7-5-7-5------------- 
B-------------------------7-------------------------7-5--------- 
G--------------------------------------------------------------- 
D--------------------------------------------------------------- 
A--------------------------------------------------------------- 
E--------------------------------------------------------------- 
x2 (Sort of)