Girls Like That (Don't Go For Guys Like Us)

Custard

Get Girls Like That (Don't Go For Guys Like Us) chords

  			Australia 
GIRLS LIKE THAT (DON'T GO FOR GUYS LIKE US) (Custard)  
transcribed by Ian Gray ([email protected]) 
Key: 
/    = slide up 
\    = slide down 
b^   = bend (1/2 step) 
r    = release-bend 
p^   = pull-off 
h^   = hammer-on 
~    = Vibrato 
Intro: 
E-2-2-2-2---------------2-2-2-2------------------ 
B-2-2-2-2------4p^2-----2-2-2-2-----6-6--6-6--6-- 
G-3-3-3-3------4p^2-2---3-3-3-3-----6-6--6-6--6--  
D-4-4-4-4---------------4-4-4-4-----6-6--6-6--6-- 
A-----------------------------------4-4--4-4--4-- 
E------------------------------------------------ 
 x 2 
Part played over above chord pattern 
(synth arranged for guitar): 
E------------------------------------------------ 
B------------------------14-14-16-16b^-16-14----- 
G-----------14-------13-------------------------- 
D-16--16-16----16-16----------------------------- 
A------------------------------------------------ 
E------------------------------------------------ 
E------------------------------------------------ 
B------------------------14-14------------------- 
G-----------14-------13--------16-16-14-14-13----  
D-16--16-16----16-16----------------------------- 
A------------------------------------------------ 
E------------------------------------------------ 
  ...   
E------------------------------------------------ 
B------------------11-11------------------------- 
G-11-11-11--14-14---------------11----13-11------  
D-------------------------13-13----13--------13\- 
A------------------------------------------------ 
E------------------------------------------------ 
Little Gtr Fill by Dave! 
w/muted strings 
A---6-4-2-1h^2p^1-- 
E-4---------------- 
Girls like that  
Girls like that don't go for guys like us  
I wanna see the facts  
and she says simply "no,  ah         ah"  
E------------11----------------13--- (synth arranged 
B---------12----------------13------  for guitar)  
G------13----------------14--------- 
B---13----------------15------------ 
  <-----x2-----> 
The Julio Iglesias he just ain't scientific  
I'll keep on lookin' for that lovin' feelin'  
I'll keep on lookin' for that lovin' feelin'  
All of the chemists and witch doctors they know  
what I'll never ever know  
Guitar  
Solo: 
E---------------------------------------------------------- 
B--/7-7-5-5-4---4---------/7-7-5-5-4---4--------7---9-7---- 
G--/8-8-6-6-4---4-6b^r~---/8-8-6-6-4---4--6/8-8---8-----8-- 
D-------------6----------------------6--------------------- 
A---------------------------------------------------------- 
E---------------------------------------------------------- 
E-------------------------------------------------------- 
B--/7-7-5-5-4--------4----/7-7-5-5-4-----------7---7----- 
G--/8-8-6-6-4--------4----/8-8-6-6-4---4h^6--8---8------- 
D-------------6-4h^6-----------------6------------------- 
A-------------------------------------------------------- 
E-------------------------------------------------------- 
  <---------x2---------> 
E--------------------------------------- 
B----7---7-----7----7\------------------ 
G--9---9---/10---10--------------------- 
D--------------------------------------- 
A------------------------7--6--4-------- 
E---------------------------------7--4-- 
                             Now listen,  
(bass only) 
Girls like that  
Girls like that don't go for guys like us  
I still wanna see the facts  
but this time she's serious  
She says there's too too many worlds  
Too many worlds wrapped up in science fiction  
Tiny boys and tiny girls  
I may well live to regret this in the        morning  
for I am considering, a move to South America  
to keep on lookin' for that lovin' feelin'  
I'll keep on lookin' for that lovin' feelin'  
All of the chemists and witch doctors they know  
what I'll never ever know  
 etc... 
They know they know they know that lovin' feelin'  
They know the chemists and witch doctors know it  
They know they know they know that lovin' feelin'  
that feelin'  
that feelin'  
Woo hoo hoo, hoo hoo hoo hoo  
                            (...end on ) 
Woo hoo hoo, hoo hoo hoo hoo