The Golden Age Of Nicotine

Custard

Get The Golden Age Of Nicotine chords

  			Australia 
THE GOLDEN AGE OF NICOTINE (McCormack)  
transcribed by Ian Gray ([email protected]) 
E------------- 
B-9999-9999-9- 
G-9999-9999-9- 
D-9999-9999-9- 
A-7777-7777-7- 
E------------- 
I'm in love, love, love and if I see her today  
       (low)     
I will ask her to stay with me forever  
From above, above, above the angels sent her to play  
on my heart strings I pray she'll never hate me  
and when the angels ask me to recoil  
my skin is lost (my skin is lost, my skin is lost) 
and when the angels ask me who I'm going for  
I'll say "it's you"  
I'll say "it's you"  
I'm in love, love, love and if I see her today  
       (low)     
I will ask her to stay with me forever  
Keyboard Solo (arranged for guitar): 
E------------------------------ 
B-----5------------------------ 
G-6-7---7-6------6-4--6-4------ 
D-----------7--7-----------7-6- 
A------------------------------ 
E------------------------------ 
E------------------------------ 
B--------5--------------------- 
G-4--6-7---7-6---4------------- 
D--------------7---7----------- 
A------------------------------ 
E------------------------------