transcribed by Ian Gray ([email protected]) 
This Custard tune which opens Wisenheimer features some funky rhythm guitar patterns  
using 6 and 7 bar chord shapes. When playing the  bar chords you're only moving  
your 1st, 2nd and 3rd fingers up one fret, keeping your pinky fixed at the 9th fret.  
Listen to the recording to get the right strumming technique. 
Key: 
b^   = bend (1/2 step) 
r    = release-bend 
Intro: 
 x 2 
2nd time around, Matt plays something like this: 
w/muted strings 
E--------------------------------------- 
B-11-9-11-9----9--7---7---7-9--11-11-11- 
G-----------10------8---8--------------- 
D--------------------------------------- 
A--------------------------------------- 
E--------------------------------------- 
 <-----------3x-------------->  
I've got a sweet memory,  
I've got a secret  
I've got no feelings  
         etc... 
and you can't change  
That is the trouble I know  
I've got to go now  
4000 lightbulbs letting off a spark!  
I - I - I've got a memory    for     songs of yesterday  
 etc...   
I was dreaming in back,  
I've got to go now  
I've got no reasons  
and you can't change  
That is the reason that I  
I know no knowledge  
I'm feeling blindly for the rattlesnake rattlesnake  
I've got a memory for songs of yesterday  
I've got a memory for songs of yesterday  
 x 2 
Goofindergoofinder  
You can't change  
that is the reason that I  
I know no loving  
I've got a feeling that you can't change that 
You can't change that 
Solo: 
E-14-11----11----------------11--14-11- 
B-------14----14-11-14-11-14----------- 
G-------------------------------------- 
D-------------------------------------- 
A-------------------------------------- 
E-------------------------------------- 
E-14-11----11----------------11--14-11- 
B-------14----14-11-14-11-14----------- 
G-------------------------------------- 
D-------------------------------------- 
A-------------------------------------- 
E-------------------------------------- 
E-14-11----11----------------11--14-14b^rb^r- 
B-------14----14-11-14-11-14----------------- 
G-------------------------------------------- 
D-------------------------------------------- 
A-------------------------------------------- 
E-------------------------------------------- 
I - I - I've got a memory    for     songs of yesterday 
I - I - I've got a memory    for     songs of yesterday