Australia 
SINATRA THEORY (Custard)  
transcribed by Ian Gray ([email protected]) 
Key: 
h^   = hammer-on 
Intro:                                     
E------------------------------ 
B-7-7-8-8-7-7-7-8-8-7-7-8-8-7-- 
G-7-7-7-7-7-7-7-7-7-7-7-7-7-7-- 
D------------------------------ 
A------------------------------ 
E------------------------------ 
Fill 1: 
E------------------------------ 
B-3-3-4-4-3-3-3-4-4------------ 
G-4-4-4-4-4-4-4-4-4------------ 
D------------------------------ 
A------------------------------ 
E------------------------------ 
 <-------2x-------->  
Fill 1a: 
E------------------------------ 
B-3-3-4-4-3-3-3-4-4-3-3-4-4-3-- 
G-4-4-4-4-4-4-4-4-4-4-4-4-4-4-- 
D------------------------------ 
A------------------------------ 
E------------------------------ 
Fill 2: 
E------------------------------ 
B------------------------------ 
G------------------------------ 
D---0---0------0------0-------- 
A-2---2---0h^2---0h^2---------- 
E------------------------------ 
 <---------2x---------->  
{Intro} 
I walk these corridors  
I don't think I'm ever coming home  
one time to be your friend  
I killed off everything you owned  
 {w/Fill 1} 
Losing the money was the hardest thing to own  
            {w/Fill 1a} 
I'm coming home  
 {w/Fill 2}  
I had some money once  
I hear I spent it all on you  
one time your Christmas lights  
 {w/Fill 2} 
I threw my body on the lawn  
 {w/Fill 1}  
I'm smashing bugs with a pingpong bat at home  
            {w/Fill 1} 
I'm coming home  
         {w/Fill 1}    
my skeleton falls down  
            {w/Fill 1a}      
I'm coming home  
  Community radio station  
  rock gets played in the parking lots  
  these speakers amplify the tones  
            {w/Fill 1}  
I'm coming home  
         {w/Fill 1} 
my skeleton falls down  
              {w/Fill 1a}   
I walk these corridors