Notes: 
Here's the main riff from the song plus the chords for the other parts. I used 
Amazing Slow Downer to slow down the main riff so I could figure it out - so it 
should be nearly spot on. 
RIFF / VERSES: 
E-|--------------------------------------------------------------------------------|- 
B-|--------------------------------------------------------------------------------|- 
G-|--------------------------------------------------------------------------------|- 
D-|--------------------------------------------------------------------------------|- 
A-|----------------5~~-5-3--------3----------------3----------------3-4-5--5-------|- 
E-|-0-0-3-4-5-4-3------------4--5----5---3~~-3-4-5----5--4--5~~--5------------3-4--|- 
CHORUS CHORDS: 
E-|------------------|- 
B-|------------------|- 
G-|-----7---6----5---|- 
D-|-2---7---6----5---|- 
A-|-2---5---4----3---|- 
E-|-0----------------|- 
BEFORE 2ND VERSE: 
E-|------------------------------------------|- 
B-|------------------------------------------|- 
G-|------------------------------------------|- 
D-|------------------------------------------|-(x 2) 
A-|----------------5~~-5-3--------3----------|- 
E-|-0-0-3-4-5-4-3------------4--5----5---3~~-|- 
BRIDGE CHORDS: 
E-|-------------|- 
B-|-------------|- 
G-|-------------|- 
D-|-5---7---2---|-(play the  chord twice after the first progression) 
A-|-5---7---2---|- 
E-|-3---5---0---|-