Transcribed by Paul @ OzTabs ([email protected]) 
www.ozmusic-central.com.au/oztabs 
Notes: There's only two chord progressions throughout the song, here 
they are. If you know the lyrics, send them through and I'll add them 
to the tab. Comments and corrections welcome. 
INTRO / VERSES: 
E-|-3--3--3-3-3-------3--3--3-3-3-------|- 
B-|-3--3--3-3-3-------3--3--3-3-3-------|- 
G-|-0--0--0-0-0-------0--0--0-0-0-------|- 
D-|-0--0--0-0-0-0-0---0--0--0-0-0-0-0---|- (keep ya fingers holding down the high E &  
A-|-x--x--x-x-x-x-x---x--x--x-x-x-x-x---|-  strings & let the notes ring out througout) 
E-|-3--3--3-3-3-1-1-0-3--3--3-3-3-1-1-0-|- 
CHORUS: 
E-|-----------------------------------------------------------------|- 
B-|-----------------------------------------------------------------|- 
G-|-----------------5-5-5-5-5-5-5-5-3-3-3-3-3-3-3-3-5-5-5-5-5-5-5-5-|- 
D-|-5-5-5-5-5-5-5-5-5-5-5-5-5-5-5-5-3-3-3-3-3-3-3-3-5-5-5-5-5-5-5-5-|- (slight palm mute  
A-|-5-5-5-5-5-5-5-5-3-3-3-3-3-3-3-3-1-1-1-1-1-1-1-1-3-3-3-3-3-3-3-3-|-  strings with  
E-|-3-3-3-3-3-3-3-3-------------------------------------------------|-  strumming hand)