Notes: Place a capo on the 4th fret - tab is relative to capo. 
I'm not 100% sure on the 2nd chord for the chorus but what I've  
tabbed sounds fairly close. 
INTRO: 
E-|--------------------------------------------------|- 
B-|-2-2--2-2-3-3--3--3-3--3-3--3-3--2----------------|- 
G-|-2-2--2-2-2-2--2--2-2--0-0--2-2--2--------2-------|- 
D-|-2-2--2-2-0-0--0--0-0--0-0--0-0--2--2-0h2---2-0h2-|- 
A-|-0-0--0-0--------------x-x--x-x--0----------------|- 
E-|-----------------------3-3--2-2-------------------|- 
E-|---------------------------------------------------|- 
B-|-2-2--2-2-3-3--3--3-3--3-3--3-3--2-----------------|- 
G-|-2-2--2-2-2-2--2--2-2--0-0--2-2--2-----------------|- 
D-|-2-2--2-2-0-0--0--0-0--0-0--0-0--2----5----4-----2-|- 
A-|-0-0--0-0--------------x-x--x-x--0--0----0-----0---|- 
E-|-----------------------3-3--2-2--------------------|- 
VERSES: 
E-|---------------------------------------------------|- 
B-|-2-2--2-2-3-3--3--3-3--3-3--3-3--2-----------------|- 
G-|-2-2--2-2-2-2--2--2-2--0-0--2-2--2-----------------|- 
D-|-2-2--2-2-0-0--0--0-0--0-0--0-0--2----5----4-----2-|- 
A-|-0-0--0-0--------------x-x--x-x--0--0----0-----0---|- 
E-|-----------------------3-3--2-2--------------------|- 
E-|--------------------------------------------------|- 
B-|-2-2--2-2-3-3--3--3-3--3-3--3-3--2----------------|- 
G-|-2-2--2-2-2-2--2--2-2--0-0--2-2--2--------2-------|- 
D-|-2-2--2-2-0-0--0--0-0--0-0--0-0--2--2-0h2---2-0h2-|- 
A-|-0-0--0-0--------------x-x--x-x--0----------------|- 
E-|-----------------------3-3--2-2-------------------|- 
E-|---------------------------------------------------|- 
B-|-2-2--2-2-3-3--3--3-3--3-3--3-3--2-----------------|- 
G-|-2-2--2-2-2-2--2--2-2--0-0--2-2--2-----------------|- 
D-|-2-2--2-2-0-0--0--0-0--0-0--0-0--2----5----4-----2-|- 
A-|-0-0--0-0--------------x-x--x-x--0--0----0-----0---|- 
E-|-----------------------3-3--2-2--------------------|- 
E-|---------------------------------------------------|- 
B-|-2-2--2-2-3-3--3--3-3--3-3--3-3--2-----------------|- 
G-|-2-2--2-2-2-2--2--2-2--0-0--2-2--2-----------------|- 
D-|-2-2--2-2-0-0--0--0-0--0-0--0-0--2----5----4-----2-|- 
A-|-0-0--0-0--------------x-x--x-x--0--0----0-----0---|- 
E-|-----------------------3-3--2-2--------------------|- 
PRE CHORUS: 
E-|-2--2--2-2-2--3--3--3-3-3--2--2--2-2-2--3--3--3-3-3-|- 
B-|-3--3--3-3-3--3--3--3-3-3--3--3--3-3-3--3--3--3-3-3-|- 
G-|-2--2--2-2-2--2--2--2-2-2--2--2--2-2-2--2--2--2-2-2-|- 
D-|-0--0--0-0-0--0--0--0-0-0--0--0--0-0-0--0--0--0-0-0-|- 
A-|----------------------------------------------------|- 
E-|----------------------------------------------------|- 
CHORUS: 
E-|-----------------------0-0-0-0-0--2-2-2-2-2-|- 
B-|-2-2-2-2-2--2-2-2-2-2--0-0-0-0-0--3-3-3-3-3-|- 
G-|-2-2-2-2-2--2-2-2-2-2--1-1-1-1-1--2-2-2-2-2-|- 
D-|-2-2-2-2-2--2-2-2-2-2--2-2-2-2-2--0-0-0-0-0-|- 
A-|-0-0-0-0-0--x-x-x-x-x--2-2-2-2-2------------|- 
E-|------------4-4-4-4-4--0-0-0-0-0------------|- 
E-|-----------------------0-0-0-0-0--2-2-2-2-2-|-3-3-3-3-3--2-2-2-2-2-|- 
B-|-2-2-2-2-2--2-2-2-2-2--0-0-0-0-0--3-3-3-3-3-|-3-3-3-3-3--3-3-3-3-3-|- 
G-|-2-2-2-2-2--2-2-2-2-2--1-1-1-1-1--2-2-2-2-2-|-2-2-2-2-2--2-2-2-2-2-|- 
D-|-2-2-2-2-2--2-2-2-2-2--2-2-2-2-2--0-0-0-0-0-|-0-0-0-0-0--0-0-0-0-0-|- 
A-|-0-0-0-0-0--x-x-x-x-x--2-2-2-2-2------------|----------------------|- 
E-|------------4-4-4-4-4--0-0-0-0-0------------|----------------------|- 
BRIDGE: I just play an E chord 
SOLO: ??