Tunning: B E A D G B 
Verse: 
|-----------------------------------------------------------------------------| 
|--8h10-8---8h10~---8h10-8------8h10-8----------------------------------------| 
|---------9----------------9/7~--------9-(7)h9-7/5h7-(5)h7(5)/4-(4)h5-4-2-----| 
|----------------------------------0---------0-----------0----------0---------| 
|----0-----------------0------------------------------------------------------| 
|-----------------0-----------------------------------------------------------| 
|-----------------------------------------------------------------------------| 
|--/10-8---8h10~----10b12r10p8---8h10b12r10-8---------------------------------| 
|---------9--------------------9--------------9-(7)h9-7/5-5/4-\2-2------------| 
|----------------------------------------0----------0-------------------------| 
|----0------------------------------------------------------------------------| 
|----------------0--0---------------------------------------------------------| 
|-------------------3----------------3b(1/4)r3------------------3----5--------| 
|------0h1p0---0-/5---\3--1---1----1-3b(1/4)r3-(3)p1---1----3-5---/7----------| 
|--0h2-------2--------------2---2--------------------2---/4-------------------| 
|------------------------------------0-------0--------------------------------| 
|--0--------------------------------------------------------------------------| 
|----------------------0------------------------------------------------------| 
|-----7---7---7-10-8-8p7------------------------------------------------------| 
|-7/8---8---8------------0-10-8p7-----7---8-5---------------------------------| 
|-----------------------------0---9-9---9-----7h9-7h9-7/5h7p5-4h5-4/2---------| 
|-------------------------------------------0-----0-----------0---------------| 
|-0---------------------------------------------------------------------------| 
|---------------0-------------------------------------------------------------| 
Chorus: 
(Play the bass "*" with the thumb). 
|----3h5-3--------3h5-3---------3h5-3--------8-7-------|------0------------| 
|------3-3----------3-3-----------5-3--------7-5-------|-3~~~~0------------| 
|-----------------------------------------------------.|-------------------| 
|-----------------------------------------0-----------.|-0-----------------| 
|-0----------------------------------------------------|-------------------| 
|--------------0------------3*-------------------------|-------------------| 
Bridge: 
The "nh" notes are naturals harmonic. 
|---------------------------------------------|------------------| 
|----5---------8-------7-----------12---------|----7--------0----| 
|------0---------0-------0------------0------.|------0---7------.| 
|--------------------------------------------.|-----------------.| 
|--3-----3/--7------5-------5/--10------------|-5--------5-------| 
|---------------------------------------------|------------------| 
|------------------7nh--------5nh------------12nh---|-------------------| 
|----5----------8--7nh-----0--5nh-------------------|-------------------| 
|------0-----------7nh--------5nh--7nh-------------.|-------------------| 
|---------------------------------------12nh-------.|--7nh-----12-------| 
|--3-----3/--7----------5---------------------------|-------------------| 
|---------------------------------------------------|-------------------| 
Solo: 
(Maybe not 100% correct, it's possible that John improvised a little during the masterclass..). 
"FB" means "Full Bend". 
|--------------------------------------10FB--10FB-10FB-10--10-10-10-----| 
|-10---10-----8h10-8h10-8h10---10-8-10-10FB--10FB-10FB-10--10-10-10-----| 
|-----------------------------------------------------------------------| 
|---------------------------------------0-----0----0----0---0--0--0-----| 
|-0---------------------------------------------------------------------| 
|----------0-----0----0----0---0----------------------------------------| 
|------------------------------------------------------------------------| 
|-8h10p8---8-10p8-----------------------------------(8)------------------| 
|--------9--------9-7/5---5----------------5-7p5/9------9/7-5------------| 
|-----------------------7---7p5--7---7-5h7-------0-----------------------| 
|--0---------0-----------------------------------------------------------| 
|--------------------------------0---------------------------------------| 
|-------------------------------------5-------------------5-------------------| 
|---X---------8----------X-----------5--8p5----5------------5h8p5-----5-----5-| 
|-7---7-h5/-9---9/7p5------5h7p5-7FB---------7---0-7-7FB----------7FB---0h7---| 
|-0----0----0---------7-------------------------------------------------------| 
|--------------------------------0-----------0-------0------------------------| 
|-----------------------------------------------------------------0-----------| 
|----------------------8----8h10---8----10FB--10FB--10FB--10FB--10FB--10FB--10FB-| 
|-----8-----8-----/10----10----------10------------------------------------------| 
|-7/9---9-9---9------------------------------------------------------------------| 
|-0-------0-----0---0----------0-------------------------------------------------| 
|---------------------------------------0-----0------0-----0---------------------| 
|----------------------------------------------------------------0----0------0---| 
                                     (Don't release the bend, hold it through the 9 notes) 
|-10FB-10FB--8--------10-------12-------13-------15----------------------| 
|--------------10/12-----12/13----13/15----15-17----17-------------------| 
|------------------------------------------------------------------------| 
|------------------------------------------------------------------------| 
|--------------0----------------------------------------0----------------| 
|-0-----0----------------------------------------------------------------|