Music & Lyrics by John Butler 
	          From the album "John Butler" By The John Butler Trio 
Tabbed by - jack - [email protected] 
Tuning - DADGBe 
skip the intro 
e------------------------------------------------- 
b-----0-1-0h1p0----------------------------------- 
g-0h2-----------2p0-2-2/4-2p0-2-2----------------- 
d-0---0-0-0-----0---0-0---0---0-0----------------- 
a------------------------------------------------- 
d------------------------------------------------- 
e------------------------------------------------- 
b-----0-1-0h1p0---------3-3-3--------------------- 
g-0h2-----------2p0-2-2-2-2-2--------------------- 
d-0---0-0-------0---0-0-0-0-0--------------------- 
a------------------------------------------------- 
d------------------------------------------------- 
e------------------------------------------------- 
b-----0-1-0h1p0---------------------------------3- 
g-0h2-----------2p0-2-2/4-2-2-0-0-0-0-0-0-0-2-2-2- 
d-0---0-0-0-----0---0-0---0-0-0-4-4-5-4-5-4-0-0-0- 
a------------------------------------------------- 
d------------------------------------------------- 
chorus 
e----0---0--0-------------------------------- 
b----3---3--3-------------------------------- 
g----2---2--2-------------------------------- 
d----0---0--0-------------------------------- 
a----3---2--0-------------------------------- 
d-------------------------------------------- 
other bit 
e----17-------12--------14--------12--------- 
b----15-------15--------15--------15--------- 
g----14-------14--------14--------14--------- 
d-------------------------------------------- 
a-------------------------------------------- 
d-------------------------------------------- 
jack - [email protected] 
Got any Tabs? 
Send them to [email protected] 
http://www.johnbutlertrio.com