Music & Lyrics by John Butler 
	          From the album "John Butler" By The John Butler Trio 
Tabbed by - jack - [email protected] 
(i think this might be wrong, sounds cool though) 
This sounds like the intro 
e---------------------------------10-12--12------------ 
b----------------8-10--10--10/12----------------------- 
g-----7-9--9-7/9------------------7--9---9------------- 
d-7/9------------5--7---7---7/9------------------------ 
a-----5-7--7-5/7--------------------------------------- 
e-5/7-------------------------------------------------- 
This riff goes pretty much throughout the song 
e------------------------------------------------------ 
b-10-10--10-10-10---8-8--8-8-8------------------------- 
g--------------------------------9-9--9-9-9---9-9-9-9-9 
d--7--7---7--7--7-0-5-5--5-5-5------------------------- 
a------------------------------0-7-7--7-7-7-0-7-7-7-7-7 
e------------------------------------------------------ 
i think in the solo parts john uses this scale 
e-----------------------------10-12-------------------- 
b---------------------8-10-12-------------------------- 
g-----------------7-9---------------------------------- 
d-----------5-7-9-------------------------------------- 
a-------5-7-------------------------------------------- 
e---5-7------------------------------------------------ 
jack - [email protected] 
Got any Tabs? 
Send them to [email protected] 
http://www.johnbutlertrio.com