Tabbed By: (Strider) Daniel King  
Email: [email protected]  
Dropped  Tuning 
 e 
~-vibrato 
b-bend 
p-pull off 
h-hammer on 
p.m.-palm mute 
r-release hand preventing a ring out 
d- dub-out 
/-Slide 
DISTORTION THROUGHOUT EXCEPT WHERE NOTED 
Verse 1 
e|------------------------------------|  
B|------------------------------------|  
G|------------------------------------|(x8) 
D|-3-3-3-3-3/10-10--7--7-7--7-7-7-7---| 
A|-3-3-3-3-3/10-10--7--7-7--7-7-7-7---| 
D|-3-3-3-3-3/10-10--7--7-7--7-7-7-7---| 
Well hello 
soon ahead 
You're behind 
Your stare 
You're hiding 
From me 
You don't want me, to see you 
Chorus 
e|----------------------------------|  
B|----------------------------------|  
G|----------------------------------| 
D|-9-9-9--9-9-9-9--9-9-9--9-9-9-9---| 
A|-9-9-9--9-9-9-9--9-9-9--9-9-9-9---| 
D|-9-9-9--9-9-9-9--9-9-9--9-9-9-9---| 
e|----------------------------------|  
B|----------------------------------|  
G|----------------------------------| 
D|-7-7-7--7-7-7-7--7-7-7--7-7-7-7---| 
A|-7-7-7--7-7-7-7--7-7-7--7-7-7-7---| 
D|-7-7-7--7-7-7-7--7-7-7--7-7-7-7---| 
You left me (x7) 
Verse 2 (As with Verse 1) 
And there's nothing, anymore 
You gave it to him 
And what for 
Should have seen it 
The first time 
Seen all the love, in her eyes 
Chorus (As with Chorus, repeat sequence) 
You left me (x7) 
Bridge (x4) 
(~CLEAN~)                   (~DISTORTION~) 
e|-------------------------|-------------------------------------| 
B|-15--14--12--10--8---7---|-------------------------------------| 
G|-19--18--16--14--12--11--|-------------------------------------| 
D|-------------------------|-9--9--9-9-9-9r--9-9--9-9-9-9-(x2)---| 
A|-------------------------|-9--9--9-9-9-9r--9-9--9-9-9-9--------| 
D|-------------------------|-9--9--9-9-9-9r--9-9--9-9-9-9--------| 
I'll never let you go 
Go, go, go 
Oh I won't let you 
Go, go, go  
I'll never let you go 
Go, go, go  
No I won't let you 
Go... 
Pre-Verse 
e|------------------------------------|  
B|------------------------------------|  
G|------------------------------------|(x3) 
D|-3-3-3-3-3/10-10--7--7-7--7-7-7-7---| 
A|-3-3-3-3-3/10-10--7--7-7--7-7-7-7---| 
D|-3-3-3-3-3/10-10--7--7-7--7-7-7-7---| 
e|------------------------------------|  
B|------------------------------------|  
G|------------------------------------| 
D|-3-3-3-3-3/10-10-7--7/15\-----------| 
A|-3-3-3-3-3/10-10-7--7/15\-----------| 
D|-3-3-3-3-3/10-10-7--7/15\-----------| 
Verse 3 
e|------------------------------------|  
B|------------------------------------|  
G|------------------------------------|(x4) 
D|-3-3-3-3-3/10-10--7--7-7--7-7-7-7---| 
A|-3-3-3-3-3/10-10--7--7-7--7-7-7-7---| 
D|-3-3-3-3-3/10-10--7--7-7--7-7-7-7---| 
You're switching 
Now do you rain 
Yeah you're moving, without me 
Chorus (As with previous Chorus) 
You left me (x7) 
Interlude (x6, while fading) 
(~CLEAN~)  
e|-0--0-0-0-0-0-0-0-0--0--0-0-0-0-0-0-0-0---|  
B|-0--0-0-0-0-0-0-0-0--0--0-0-0-0-0-0-0-0---|  
G|-7--7-7-7-7-7-7-7-7--7--7-7-7-7-7-7-7-7---| 
D|-9--9-9-9-9-9-9-9-9--9--9-9-9-9-9-9-9-9---| 
A|------------------------------------------| 
D|------------------------------------------| 
e|-0--0--0---0--0-----0----0--0-0--------|  
B|-0--0--0---0--0-----0----0--0-0--------|  
G|-11-11-11--11-11/9--9 /8-8--8-8-(x2)---| 
D|-13-13-13--13-13/11-11---9--9-9--------| 
A|---------------------------------------| 
D|---------------------------------------| 
So the outside beckons me today 
I wake up I smell this room, this place 
And then it's out through the shit quick as I can be 
To my friend's house, we can get what I need 
I need contact 
Feeling low as low 
I need to talkback, to get the up and go 
She gives me joy a lot then upwards and more 
She got my free go, all the moves  
Now they're up on the wall  
Yeah it's a sweet journey, but it can get to shaking it 
And I don't know what my problem is 
Or what the fucks making me 
I know that what I did was wrong 
But when you get back 
When you get back I'll be gone, When you get back I'll be gone 
I'll be gone, woah 
On the outside... 
Outro (x7, then fades) 
e|-------------------------------------| 
B|-------------------------------------| 
G|-------------------------------------| 
D|-5--5--5-5-5-5r--5-5--5-5-5-5-(x4)---| 
A|-5--5--5-5-5-5r--5-5--5-5-5-5--------| 
D|-5--5--5-5-5-5r--5-5--5-5-5-5--------| 
e|-------------------------------------|  
B|-------------------------------------|  
G|-------------------------------------| 
D|-9--9--9-9-9-9r--9-9--9-9-9-9-(x4)---| 
A|-9--9--9-9-9-9r--9-9--9-9-9-9--------| 
D|-9--9--9-9-9-9r--9-9--9-9-9-9--------| 
...Outside 
Beckons me today 
I wake up I smell this room, this place 
And then it's out through the shit quick as I can be 
To my friend's house, where I get what I need 
I need contact... 
Yeah I need contact... 
Got a situation 
But you want it so you get 
What's your motivation? 
Now you're running through my head 
Ohh I need contact... 
Do you love me? 
Like I love you... 
Song Structure 
Intro 
Chorus 
Verse 2 
Chorus 
Bridge 
Pre-Verse 
Verse 3 
Chorus 
Interlude 
Outro