Artist: Killing Heidi 
Tabbed By: (Strider) Daniel King  
Email: [email protected]  
Modified Tuning 
E A D F# B e 
^ G is tuned down 1 one semi-tone to F# 
~-vibrato 
b-bend 
p-pull off 
h-hammer on 
p.m.-palm mute 
r-release hand preventing a ring out 
d- dub-out 
/-Slide 
ACOUSTIC 
Intro 
e |------------------------0---------0---|  
B |------------------------5---------7---|  
F#|-----0-----------0------0--0-0----0---| 
D |-------0-------------------x-x----0---| 
A |-0h2-----2---2------x/x----5/7----0---| 
E |-----------3--------3/5---------------| 
E |-----0-----------------0---------0----|  
B |-----0------0----------5---------0----|  
F#|-----0------0----------0--0-0-0--0----| 
D |-----0------0-------------x-x-0--0----| 
A |-0h2-2--2-2-2--x-x-x/x----5/7-0--0----| 
E |--------3-3----3-3-3/5----------------| 
Verse 1 
e |-----0-----------------0---------0----|  
B |-----0------0----------5---------0----|  
F#|-----0------0----------0--0-0-0--0----|(x8) 
D |-----0------0-------------x-x-0--0----| 
A |-0h2-2--2-2-2--x-x-x/x----5/7-0--0----| 
E |--------3-3----3-3-3/5----------------| 
I've been noticing trends in taxi drivers  
They don't know what I want  
I've been pulling out on my close fathers  
But I can't count them all 
I feel the enjoyment  
I know the rejection causes fear  
I've been noticing trends in taxi drivers  
They don't know what I want 
Pre-Chorus 
e |-----0------0------0-----0------------|  
B |----0------0---------0----------------|  
F#|---5------6-----6------------6-6-6----| 
D |--4------5------5------------5-5-5----| 
A |-2------3-------3------------3-3-3----| 
E |--------------------------------------| 
e |-----0------0---0-0-0--0--0-----------|  
B |----0------0----0-0-0--0--0-----------|  
F#|---5------6-----6-6-6--6--6-----------| 
D |--4------5-------------5--5-----------| 
A |-2------3--------------3--3-----------| 
E |--------------------------------------| 
I want...yeah...I want...yeah 
Chorus 
e |-0---0--0---0--0--0--0--0--0---0---0--0---0--0---------|  
B |-0---0--0---0--0--0--0--0--0---0---0--0---0--0---9-----|  
F#|-10--10-10--10-10-10-10-10-10--10--10-10--10-10--10\---| 
D |-9---9--9---9--9--9--9--9--9---9---9--9---9--9---9-\---| 
A |-7---7--7---7--7--7--7--7--7---6---6--6---6--6---------| 
E |-------------------------------------------------------| 
e |-0--0-0--0--0-0--0-0-0--0--0-0--0--0-0--0-0-0----------|  
B |-0--0-0--0--0-0--0-0-0--0--0-0--0--0-0--0-0-0----------|  
F#|-7--7-7--7--7-7--7-7-7--7--7-7--7--7-7--7-7-7----------|(x2, incl. 
D |-7--7-7--7--7-7--7-7-7--7--7-7--7--7-7--7-7-7----------|bar above) 
A |-------------------------------------------------------| 
E |-------------------------------------------------------| 
Feel it...yeah, yeah...oh I feel it yeah...yeah 
Pre-Verse 
e |-----------------------0--------0-----|  
B |-----0---------0-------5--------0-----|  
F#|-----0-0-------0-------0--0-0---0-----| 
D |-----0--0------0----------x-x---0-----| 
A |-0h2-----2---2-----x/x----5/7---0-----| 
E |-----------3-------3/5----------------| 
e |--------------------------------------|  
B |-----0--------------------------------|  
F#|-----0-------------0------------------| 
D |-----0-------------0-------2-0--------| 
A |-0h2----2--2---0h2---2-0h2-----2------| 
E |--------3--3--------------------------| 
Huh huh 
Verse 2 (As with Verse 1, with slight variation) 
Since I was a little one  
I thought that the concept  
That there is more  
Sitting by myself now I know I can't see you anymore  
Feel the weightlessness all kicking in  
Feel you moving underneath my skin  
Since I was a little one  
Oh surely there must be more 
Pre-Chorus (As with Pre-Chorus, with slight variation) 
I want...yeah...I want...yeah 
Chorus (As with Chorus Sequence, x8) 
Feel it...yeah, yeah...oh I feel it yeah...yeah 
Oh I Feel it...yeah, yeah...oh I feel it yeah...yeah, yeah 
Bridge 
e |-0---0--0---0---0--0---0--0--0--0----|  
B |-0---0--0---0---0--0---0--0--0--0----|  
F#|-12--12-12--12--12-12--12-12-12-14---| 
D |-11--11-11--11--11-11--11-11-11/13---| 
A |-9---9--9---9---9--9---9--9--9-/11---| 
E |-------------------------------------| 
e |-0---0--0---0---0--0---0--0--0-------|  
B |-0---0--0---0---0--0---0--0--0-------|  
F#|-14--14-14--14--14-14--14-14-14/15---| 
D |-13--13-13--13--13-13--13-13-13/14---| 
A |-11--11-11--11--11-11--11-11-11/12---| 
E |-------------------------------------| 
e |-0---0--0---0---0--0---0--0--0-------|  
B |-0---0--0---0---0--0---0--0--0-------|  
F#|-15--15-15--15--15-15--15-15-15------|(x3, incl. Bars above) 
D |-14--14-14--14--14-14--14-14-14------| 
A |-12--12-12--12--12-12--12-12-12-(x2)-| 
E |-------------------------------------| 
Uh yeah, uh yeah, uh I feel it 
Pre-Ending (As with Pre-Verse, with slight variation) 
Huh huh 
Ending 
e |--------------------------0---------0-------------------|  
B |-----0----------3---------5---------0------0------------|  
F#|-----0----------0---------0--0-0----0---0--0-let ring---| 
D |-------0---------------------x-x----0---0--0------------| 
A |-0h2----2---2-----x-x-x/x----5/7----0---2--2------------| 
E |----------3-------3-3-3/5------------------3------------| 
I've been noticing trends in taxi drivers  
Who don't know what I want... 
Song Structure 
Intro 
Verse 1 
Pre-Chorus 
Chorus 
Pre-Verse 
Verse 2 
Pre-Chorus 
Chorus 
Bridge 
Pre-Ending 
Ending