Artist: Killing Heidi 
Tabbed By: (Strider) Daniel King  
Email: [email protected]  
Standard tuning  
 e 
~-vibrato 
b-bend 
p-pull off 
h-hammer on 
p.m.-palm mute 
r-release hand preventing a ring out 
d- dub-out 
/-Slide 
ACOUSTIC 
Intro 
e|-3/5-5-----------7-7-7-7-0-------0-0---0-0-0-0-0--0-0-0----|  
B|-1/3-3-----------5-5-5-5-7-7p5/3-3-3/1-1-3-1-1-1--1-3-0----|  
G|-0---0-0-0-------0-0-0-0-0-0-----0-0---0-0-0-0-0--0-0-0----| 
D|-----0-0-0-------0-0-0-0-0-0-----0-0---0-0-2-2-2--2-2-2----| 
A|-----5-5-5/7-----7-7-----7-7  /5-5-5/3-3-3-3-3-3--3-3-3----| 
E|-------------0-0-------------------------------------------|  
e|-3-3/5-5----------7-7-7-7-0-------0-0---0-0-0-0-0--0-0-0---|  
B|-1-1/3-3----------5-5-5-5-7-7p5/3-3-3/1-1-3-1-1-1--1-3-0---|  
G|-0-0---0-0-0------0-0-0-0-0-0-----0-0---0-0-0-0-0--0-0-0---|(x2) 
D|-------0-0-0------0-0-0-0-0-0-----0-0---0-0-2-2-2--2-2-2---| 
A|-------5-5-5/7----7-7-----7-7  /5-5-5/3-3-3-3-3-3--3-3-3---| 
E|---------------0-------------------------------------------|  
Verse 1 
e|-3-3/5-5----------7-7-7-7-0-------0-0---0-0-0-0-0--0-0-0---|  
B|-1-1/3-3----------5-5-5-5-7-7p5/3-3-3/1-1-3-1-1-1--1-3-0---|  
G|-0-0---0-0-0------0-0-0-0-0-0-----0-0---0-0-0-0-0--0-0-0---|(x6) 
D|-------0-0-0------0-0-0-0-0-0-----0-0---0-0-2-2-2--2-2-2---| 
A|-------5-5-5/7----7-7-----7-7  /5-5-5/3-3-3-3-3-3--3-3-3---| 
E|---------------0-------------------------------------------|  
I just keep on you 
Open the door for me  
You gotta let me be  
I said stop making up these excuses, it's useless  
I walk around in a slow pace  
All around this place  
In a wartorn way  
I feel the air rushing down my back  
I can see it's black in a wartorn Way  
The wartorn way  
It's the war...It's the wartorn way 
Chorus 
e|-3-3-3--3-3--3-3-3-3-3---|  
B|-3-3-3--3-3--3-3-3-3-3---|  
G|-0-0-0--0-0--0-0-0-0-0---|(x2) 
D|-0-0-0--0-0--0-0-0-0-0---| 
A|-x-x-x--x-x--x-x-x-x-x---| 
E|-3-3-3--3-3--3-3-3-3-3---| 
e|-0-0-0--0-0--0-0-0-0-0--3-3-3-3----0--3-3-3-3-3-----|  
B|-0-0-0--0-0--0-0-0-0-0--1-1-1-1--x-0--0-0-0-0-0-----|  
G|-0-0-0--0-0--0-0-0-0-0--0-0-0-0--0-0--0-0-0-0-0-----| 
D|-0-0-0--0-0--0-0-0-0-0--0-0-0-0--x-2--2-2-2-2-2-----| 
A|-7-7-7--7-7--7-7-7-7-7--3-3-3-3--x-3--3-3-3-3-3-----| 
E|----------------------------------------------------| 
e|-3-3-3-3--3-3--3-3-3-3-3--0-0--0-0--0-0--0-0-0-0-0--|  
B|-3-3-3-3--3-3--3-3-3-3-3--0-0--0-0--0-0--0-0-0-0-0--|  
G|-0-0-0-0--0-0--0-0-0-0-0--0-0--0-0--0-0--0-0-0-0-0--| 
D|-0-0-0-0--0-0--0-0-0-0-0--0-0--0-0--0-0--0-0-0-0-0--| 
A|-x-x-x-x--x-x--x-x-x-x-x--7-7--7-7--7-7--7-7-7-7-7--| 
E|-3-3-3-3--3-3--3-3-3-3-3----------------------------| 
e|-3-3-3-3--0--0-0-0-0-0--0-0-0-0--0-0----------------|  
B|-1-1-1-1--0--0-0-0-0-0--4-4-4-4--0-0----------------|  
G|-0-0-0-0--0--0-0-0-0-0--0-0-0-0--0-0----------------| 
D|-0-0-0-0--2--2-2-2-2-2--5-5-5-5--2------------------| 
A|-3-3-3-3--3--3-3-3-3-3--6-6-6-6--3------------------| 
E|----------------------------------------------------| 
And you don't know now  
You don't know  
You don't know  
You don't know how  
Yeah yeah (x2) 
Verse 2 (As with Verse 1, slight variation) 
Shit is bleak because this life ain't meant to be  
A cemetery  
But like sheep we walk in so easily  
To apathy  
You feel it now as you all look down  
Bodies hit the ground  
Let us live in shame  
And yeah your cries don't make a sound  
If you're never found  
It's the wartorn way  
The war...The wartorn way 
Chorus (As with Chorus, slight variation) 
And you don't know now  
You don't know  
You don't know  
You don't know how  
Yeah (x2) 
Bridge 
e|-0-0-0-0-0-0--0-0-0-0-0-0--0-0-0-0-0-0--0-0-0-0-0-0-0---|  
B|-5-5-5-5-5-5--4-4-4-4-4-4--2-2-2-2-2-2--2-2-2-2-2-4-4---|  
G|-0-0-0-0-0-0--0-0-0-0-0-0--0-0-0-0-0-0--0-0-0-0-0-0-0---| 
D|-0-0-0-0-0-0--0-0-0-0-0-0--0-0-0-0-0-0--0-0-0-0-0-0-0---| 
A|-5-5-5-5-5-5--6-6-6-6-6-6--4-4-4-4-4-4--4-4-4-4-4-4-4---| 
E|--------------------------------------------------------| 
e|-0-0-0-0-0-0--0--0--0-0-0-0-0-0--0-0-0-0-0-0-0----------|  
B|-5-5-5-5-5-5--7--8--2-2-2-2-2-2--2-2-2-2-2-4-4----------| 
G|-0-0-0-0-0-0--0--0--0-0-0-0-0-0--0-0-0-0-0-0-0----------|(x2, incl 
D|-0-0-0-0-0-0--0--0--0-0-0-0-0-0--0-0-0-0-0-0-0----------| bar above) 
A|-5-5-5-5-5-5--7--8--4-4-4-4-4-4--4-4-4-4-4-4-4----------| 
E|--------------------------------------------------------| 
This War 
This wartorn way (x4) 
Pre-Ending 
e|-3-3/5-5----------7-7-7-7-0-0-----0-0---0-0-0-0-0--0-0-0---|  
B|-1-1/3-3----------5-5-5-5-7-7p5/3-3-3/1-1-3-1-1-1--1-3-0---|  
G|-0-0---0-0-0------0-0-0-0-0-0-----0-0---0-0-0-0-0--0-0-0---|(x2) 
D|-------0-0-0------0-0-0-0-0-0-----0-0---0-0-2-2-2--2-2-2---| 
A|-------5-5-5/7----7-7-----7-7  /5-5-5/3-3-3-3-3-3--3-3-3---| 
E|---------------0-------------------------------------------| 
The way...the way 
Ending 
e|-3-3/5-5----------7-7-7-7-0-------0-0---0-0-0-0-0--0-0-0---|  
B|-1-1/3-3----------5-5-5-5-7-7p5/3-3-3/1-1-3-1-1-1--1-3-0---|  
G|-0-0---0-0-0------0-0-0-0-0-0-----0-0---0-0-0-0-0--0-0-0---| 
D|-------0-0-0------0-0-0-0-0-0-----0-0---0-0-2-2-2--2-2-2---| 
A|-------5-5-5/7----7-7-----7-7  /5-5-5/3-3-3-3-3-3--3-3-3---| 
E|---------------0-------------------------------------------| 
e|-3-3/5-5----------7-7-7-7-----0-0-0---0-----0--------------|  
B|-1-1/3-3----------5-5-5-5-7p5/3-3-3/1-1----3---------------|  
G|-0-0---0-0-0------0-0-0-0-0-----0-0---0---0--let ring------| 
D|-------0-0-0------0-0-0-0-0-----0-0---0--0-----------------| 
A|-------5-5-5/7----7-7-----7  /5-5-5/3-3-3------------------| 
E|---------------0-------------------------------------------| 
Shit is bleak because this life ain't meant to be  
A cemetery. 
Song Structure 
Intro 
Verse 1 
Chorus 
Verse 2 
Chorus 
Bridge  
Pre-Ending 
Ending