Tabbed By: (Strider) Daniel King  
Email: [email protected]  
Standard tuning  
 e 
~-vibrato 
b-bend 
p-pull off 
h-hammer on 
^-palm mute 
r-release hand preventing a ring out 
d- dub-out 
/-Slide 
DISTORTION THROUGHOUT EXCEPT WHERE NOTED 
Intro (x2) 
(~ELECTRIC~ CLEAN) 
e--------------------------------------------|  
B--------------------------------------------|  
G-----0-----0-------0-----0-----0-------0----| 
D-0-------------0-------------------0--------| 
A--------------------------------------------| 
E---3---3-3---3---3---3-2---2-2---2---2---2--| 
e--------------------------------------------|  
B--------------------------------------------|  
G---0-----0-----0--0--0------0-0-2p0-0-0-----| 
D-------------0----2----2/5b-----------------| 
A-2---2-2---2--------------------------------| 
E--------------------------------------------| 
Verse 1 (x2) 
e--------------------------------------------|  
B--------------------------------------------|  
G-----0-----0-------0-----0-----0-------0----| 
D-0-------------0-------------------0--------| 
A--------------------------------------------| 
E---3---3-3---3---3---3-2---2-2---2---2---2--| 
e--------------------------------------------|  
B--------------------------------------------|  
G---0-----0-----0--0--0------0-0-2p0-0-0-----| 
D-------------0----2----2/5b-----------------| 
A-2---2-2---2--------------------------------| 
E--------------------------------------------| 
Speak to me and let us be.  
For you know that's how it could be... 
Chorus (x2) 
e-----------------------------------------------------------------|  
B-----------------------------------------------------------------|  
G-5-5-5-5-5-5-5-5-5-5-5-5-5-5-5-5---------------------------------| 
D-5-5-5-5-5-5-5-5-5-5-5-5-5-5-5-5-5-5-5-5-5-5-5-5-5-5-5-5-5-0-----| 
A-3-3-3-3-3-3-3-3-3-3-3-3-3-3-3-3-5-5-5-5-5-5-5-5-5-5-5-5-5-0-----| 
E---------------------------------3-3-3-3-3-3-3-3-3-3-3-3-3-0-----| 
e-----------------------------------------------------------------|  
B-----------------------------------------------------------------|  
G-3-3-3-3-3-3-3-3-3-3-3-3-3-3-3-3---------------------------------| 
D-3-3-3-3-3-3-3-3-3-3-3-3-3-3-3-3-3-3-3-3-3-3-3-3-3-3-3-3-3-3-3-3-| 
A-1-1-1-1-1-1-1-1-1-1-1-1-1-1-1-1-3-3-3-3-3-3-3-3-3-3-3-3-3-3-3-3-| 
E---------------------------------1-1-1-1-1-1-1-1-1-1-1-1-1-1-1-1-| 
And race, 'cause its all I need. 
And be my everything. 
Verse 2 (As with Verse 1) 
Would you wait there - fear what's ahead. 
Does it mean that we couldn't bear? 
Chorus  
e-----------------------------------------------------------------|  
B-----------------------------------------------------------------|  
G-5-5-5-5-5-5-5-5-5-5-5-5-5-5-5-5---------------------------------| 
D-5-5-5-5-5-5-5-5-5-5-5-5-5-5-5-5-5-5-5-5-5-5-5-5-5-5-5-5-5-0-----| 
A-3-3-3-3-3-3-3-3-3-3-3-3-3-3-3-3-5-5-5-5-5-5-5-5-5-5-5-5-5-0-----| 
E---------------------------------3-3-3-3-3-3-3-3-3-3-3-3-3-0-----| 
e-----------------------------------------------------------------|  
B-----------------------------------------------------------------|  
G-3-3-3-3-3-3-3-3-3-3-3-3-3-3-3-3---------------------------------|  
D-3-3-3-3-3-3-3-3-3-3-3-3-3-3-3-3-3-3-3-3-3-3-3-3-3-3-3-3-3-3-3-3-| 
A-1-1-1-1-1-1-1-1-1-1-1-1-1-1-1-1-3-3-3-3-3-3-3-3-3-3-3-3-3-3-3-3-| 
E---------------------------------1-1-1-1-1-1-1-1-1-1-1-1-1-1-1-1-| 
(Repeat above 2 bars) 
e-----------------------------------------------------------------|  
B-----------------------------------------------------------------|  
G-7-7-7-7-7-7-7-7-7-7-7-7-7-7-7-7---------------------------------| 
D-7-7-7-7-7-7-7-7-7-7-7-7-7-7-7-7-7-7-7-7-7-7-7-7-7-7-7-7-7-0-----| 
A-5-5-5-5-5-5-5-5-5-5-5-5-5-5-5-5-7-7-7-7-7-7-7-7-7-7-7-7-7-0-----| 
E---------------------------------5-5-5-5-5-5-5-5-5-5-5-5-5-0-----| 
e-----------------------------------------------------------------|  
B-----------------------------------------------------------------|  
G-5-5-5-5-5-5-5-5-5-5-5-5-5-5-5-5---------------------------------|  
D-5-5-5-5-5-5-5-5-5-5-5-5-5-5-5-5-5-5-5-5-5-5-5-5-5-5-5-5-5-5-5-5-| 
A-3-3-3-3-3-3-3-3-3-3-3-3-3-3-3-3-5-5-5-5-5-5-5-5-5-5-5-5-5-5-5-5-| 
E---------------------------------3-3-3-3-3-3-3-3-3-3-3-3-3-3-3-3-| 
(Repeat above 2 bars) 
And race, cause its all I need. 
An' be my everything. 
Race, cause its all I need. 
An' be my everything. 
Post Chorus (As with Introduction) 
Verse 3 (As with Verse 1) 
Would you wait there - fear what's ahead. 
Does it mean that we couldn't bear? 
Chorus 
e-----------------------------------------------------------------|  
B-----------------------------------------------------------------|  
G-5-5-5-5-5-5-5-5-5-5-5-5-5-5-5-5---------------------------------| 
D-5-5-5-5-5-5-5-5-5-5-5-5-5-5-5-5-5-5-5-5-5-5-5-5-5-5-5-5-5-0-----| 
A-3-3-3-3-3-3-3-3-3-3-3-3-3-3-3-3-5-5-5-5-5-5-5-5-5-5-5-5-5-0-----| 
E---------------------------------3-3-3-3-3-3-3-3-3-3-3-3-3-0-----| 
e-----------------------------------------------------------------|  
B-----------------------------------------------------------------|  
G-3-3-3-3-3-3-3-3-3-3-3-3-3-3-3-3---------------------------------|  
D-3-3-3-3-3-3-3-3-3-3-3-3-3-3-3-3-3-3-3-3-3-3-3-3-3-3-3-3-3-3-3-3-| 
A-1-1-1-1-1-1-1-1-1-1-1-1-1-1-1-1-3-3-3-3-3-3-3-3-3-3-3-3-3-3-3-3-| 
E---------------------------------1-1-1-1-1-1-1-1-1-1-1-1-1-1-1-1-| 
(Repeat above 2 bars) 
e-----------------------------------------------------------------|  
B-----------------------------------------------------------------|  
G-7-7-7-7-7-7-7-7-7-7-7-7-7-7-7-7---------------------------------| 
D-7-7-7-7-7-7-7-7-7-7-7-7-7-7-7-7-7-7-7-7-7-7-7-7-7-7-7-7-7-0-----| 
A-5-5-5-5-5-5-5-5-5-5-5-5-5-5-5-5-7-7-7-7-7-7-7-7-7-7-7-7-7-0-----| 
E---------------------------------5-5-5-5-5-5-5-5-5-5-5-5-5-0-----| 
e-----------------------------------------------------------------|  
B-----------------------------------------------------------------|  
G-5-5-5-5-5-5-5-5-5-5-5-5-5-5-5-5---------------------------------|  
D-5-5-5-5-5-5-5-5-5-5-5-5-5-5-5-5-5-5-5-5-5-5-5-5-5-5-5-5-5-5-5-5-| 
A-3-3-3-3-3-3-3-3-3-3-3-3-3-3-3-3-5-5-5-5-5-5-5-5-5-5-5-5-5-5-5-5-| 
E---------------------------------3-3-3-3-3-3-3-3-3-3-3-3-3-3-3-3-| 
e-----------------------------------------------------------------|  
B-----------------------------------------------------------------|  
G-9-9-9-9-9-9-9-9-9-9-9-9-9-9-9-9---------------------------------| 
D-9-9-9-9-9-9-9-9-9-9-9-9-9-9-9-9-9-9-9-9-9-9-9-9-9-9-9-9-9-0-----| 
A-7-7-7-7-7-7-7-7-7-7-7-7-7-7-7-7-9-9-9-9-9-9-9-9-9-9-9-9-9-0-----| 
E---------------------------------7-7-7-7-7-7-7-7-7-7-7-7-7-0-----| 
e-----------------------------------------------------------------|  
B-----------------------------------------------------------------|  
G-7-7-7-7-7-7-7-7-7-7-7-7-7-7-7-7---------------------------------|  
D-7-7-7-7-7-7-7-7-7-7-7-7-7-7-7-7-7-7-7-7-7-7-7-7-7-7-7-7-7-7-7-7-| 
A-5-5-5-5-5-5-5-5-5-5-5-5-5-5-5-5-7-7-7-7-7-7-7-7-7-7-7-7-7-7-7-7-| 
E---------------------------------5-5-5-5-5-5-5-5-5-5-5-5-5-5-5-5-| 
An' Race, cause its all I need. 
An' be my everything. 
Race, cause its all I need. 
An' be my everything. 
Ending (As with Verse 1) 
e-3-----------|  
B-3-----------|  
G-0-let ring--|  
D-0-----------| 
A-2-----------| 
E-3-----------| 
Song Structure 
Intro 
Verse 1 
Chorus 
Verse 2 
Chorus 
Verse 3 
Chorus 
Ending