Tabbed By: (Strider) Daniel King  
Email: [email protected]  
Dropped  tuning  
 e 
~-vibrato 
b-bend 
p-pull off 
h-hammer on 
^-palm mute 
r-release hand preventing a ring out 
d- dub-out 
/-Slide 
DISTORTION THROUGOUT 
Verse 1 (x4) 
e-----------------------------------------------------------------|  
B-----------------------------------------------------------------|  
G-----------------------------------------------------------------| 
D-12-12-12-12-12-12-12-12-12-12-12-12-12-12-12-12-----------------| 
A-12-12-12-12-12-12-12-12-12-12-12-12-12-12-12-12-----------------| 
D-12-12-12-12-12-12-12-12-12-12-12-12-12-12-12-12-----------------| 
e-------------------------|---------------------------------------|  
B-------------------------|--play this on forth time around-------|  
G-------------------------|---------------------------------------|  
D-7-7--5-5--7-5-7/8-8-8---|--7--5--5-7--5-7/8-8-8-----------------|  
A-7-7--5-5--7-5-7/8-8-8---|--7--5--5-7--5-7/8-8-8-----------------| 
D-7-7--5-5--7-5-7/8-8-8---|--7--5--5-7--5-7/8-8-8-----------------| 
Black mascara smudges your face. 
You sit in your grassy place. 
The grass is oh so greener on the other side. 
But then I wonder why. 
Chorus (x4) 
e-----------------------------------------------------------------|  
B-----------------------------------------------------------------|  
G-9-9-9-9-9-------------------------------------------------------| 
D-9-9-9-9-9--9-9-9-9-9-9-9--11-11-11-11-11--7-7-7-7-7-7-7---------| 
A-7-7-7-7-7--9-9-9-9-9-9-9--11-11-11-11-11--7-7-7-7-7-7-7---------| 
D------------9-9-9-9-9-9-9--11-11-11-11-11--7-7-7-7-7-7-7---------| 
It's never gonna be that way, 'cause you've gotta pretty face. 
Not gonna be one of those girls - don't wanna live in that world. 
Verse 2 (Same sequence as verse 1) 
Does popularity come with a make-up case? 
Just think of all the time you waste! 
See the sporties get their prizes? as we hide in the faculties demises. 
Chorus (As with chorus) 
It's never gonna be that way, 'cause you've gotta pretty face. 
Not gonna be one of those girls - don't wanna live, don't wanna live, don't wanna live in that... 
Interlude 
e-----------------------------------------------------------------|  
B-----------------------------------------------------------------|  
G-----------------------------------------------------------------| 
D-----------------------------------------------------------------| 
A-11--9--11--9--11--9--11--9--11--9--11--9--11--9--11-------------| 
D-11--9--11--9--11--9--11--9--11--9--11--9--11--9--11-------------| 
Chorus-(As with chorus) 
It's never gonna be that way, 'cause you've gotta pretty face. 
Not gonna be one of those girls - don't wanna live, don't wanna live, don't wanna live... 
Ending (x4) 
e-----------------------------------------------------|-----------|  
B-----------------------------------------------------|--end on---|  
G-9r-9r-9r-9r-----------------------------------------|-----9-----| 
D-9r-9r-9r-9r-9r-9r-9r-9r-11r-11r-11r-11r-7r-7r-7r-7r-|-----9-----| 
A-7r-7r-7r-7r-9r-9r-9r-9r-11r-11r-11r-11r-7r-7r-7r-7r-|-----7-----| 
D-------------9r-9r-9r-9r-11r-11r-11r-11r-7r-7r-7r-7r-|-----------| 
It's never gonna be that way, 'cause you've gotta pretty face. 
Not gonna be one of those girls - don't wanna live in that world. 
Song Structure 
Verse 1  
Chorus  
Verse 2 
Chorus  
Interlude 
Chorus  
Ending