Album : Reflector 
Tabbed By Andrew Schultz  ([email protected]) 
Requested By Simpson Family  ([email protected]) 
Tuning: Standard 
Intro 
e  --------------------------------------------- 
b  --------------------------------------------- 
g  --2--4----------------------------------------- 
d  --2--4--5--------------------------------------- 
a  --0--2--5--------------------------------------- 
E  --------3------------------------------------- 
e  --------------------------------------------- 
b  --------------------------------------------- 
g  --------------------------------------------- 
d  --------------------------------------------- 
a  --------------------------------------------- 
E  --------------------------------------------- 
Verse 
e  --------------------------------------------- 
b  --------------------------------------------- 
g  --4--2--------------------------------------- 
d  --4--2--5------------------------------------ 
a  --2--0--5------------------------------------ 
E  --------3------------------------------------ 
e  --------------------------------------------- 
b  --------------------------------------------- 
g  --------------------------------------------- 
d  --------------------------------------------- 
a  --------------------------------------------- 
E  --------------------------------------------- 
Chorus 
e  --------------------------------------------- 
b  --------------------------------------------- 
g  --------------------------------------------- 
d  --------------------------------------------- 
a  --------------------------------------------- 
E  --------------------------------------------- 
e  --------------------------------------------- 
b  --------------------------------------------- 
g  --------------------------------------------- 
d  --------------------------------------------- 
a  --------------------------------------------- 
E  --------------------------------------------- 
Outro 
e  --------------------------------------------- 
b  --------------------------------------------- 
g  --------------------------------------------- 
d  --------------------------------------------- 
a  --------------------------------------------- 
E  --------------------------------------------- 
e  --------------------------------------------- 
b  --------------------------------------------- 
g  --------------------------------------------- 
d  --------------------------------------------- 
a  --------------------------------------------- 
E  ---------------------------------------------