Tabbed By: (Strider) Daniel King  
Email: [email protected]  
Dropped  Tuning 
 e 
~-vibrato 
b-bend 
p-pull off 
h-hammer on 
p.m.-palm mute 
r-release hand preventing a ring out 
d- dub-out 
/-Slide 
DISTORTION THROUGOUT EXCEPT WHERE NOTED 
Intro (x2) 
e|---------------------------------|  
B|----4/6-6---6---6---6---6--------|  
G|----5/7-7-7-7-7-7-7-7-7-7--------| 
D|----5/7-7-7-7-7-7-7-7-7-7--3-3---| 
A|-0--3/5-5-5-5-5-5-5-5-5-5--3-3---| 
D|-0-------------------------3-3---| 
e|---------------------------------|  
B|----4/6-6---6--------------------|  
G|----5/7-7-7-7-7------------------| 
D|----5/7-7-7-7-7--3-3-3-3-3--5-5--| 
A|-0--3/5-5-5-5-5--3-3-3-3-3--5-5--| 
D|-0---------------3-3-3-3-3--5-5--| 
Verse 1 (x4) 
e|---------------------------------|  
B|----4/6-6---6---6---6---6--------|  
G|----5/7-7-7-7-7-7-7-7-7-7--------| 
D|----5/7-7-7-7-7-7-7-7-7-7--3-3---| 
A|-0--3/5-5-5-5-5-5-5-5-5-5--3-3---| 
D|-0-------------------------3-3---| 
e|---------------------------------|  
B|----4/6-6---6--------------------|  
G|----5/7-7-7-7-7------------------| 
D|----5/7-7-7-7-7--3-3-3-3-3--5-5--| 
A|-0--3/5-5-5-5-5--3-3-3-3-3--5-5--| 
D|-0---------------3-3-3-3-3--5-5--| 
You rode into my head 
You rode and bent back 
You hear the words I said 
Without a comeback 
And you try to keep me there 
But I always bounce back 
You look and I'm not there 
But you're lying flat out 
Chorus 
e|-----------------------------------|  
B|-----------------------------------|  
G|-----------------------------------| 
D|-8-x-8-x-8-x-8-x-8-x-8-x-8-x-8-x---| 
A|-8-x-8-x-8-x-8-x-8-x-8-x-8-x-8-x---| 
D|-8-x-8-x-8-x-8-x-8-x-8-x-8-x-8-x---| 
e|-------------------------------------------|  
B|-------------------------------------------|  
G|-------------------------------------------| 
D|-10-x-10-x-10-x-10-x-10-x-10-x-10-x-10-x---| 
A|-10-x-10-x-10-x-10-x-10-x-10-x-10-x-10-x---| 
D|-10-x-10-x-10-x-10-x-10-x-10-x-10-x-10-x---| 
e|---------------------------------|  
B|----4/6-6-6-6-6-6-6-6-6-6--------|  
G|----5/7-7-7-7-7-7-7-7-7-7--------| 
D|----5/7-7-7-7-7-7-7-7-7-7--3-3---| 
A|-0--3/5-5-5-5-5-5-5-5-5-5--3-3---| 
D|-0-------------------------3-3---| 
e|---------------------------------|  
B|----4/6-6-6-6-6------------------|  
G|----5/7-7-7-7-7------------------| 
D|----5/7-7-7-7-7--3-3-3-3-3--5-5--| 
A|-0--3/5-5-5-5-5--3-3-3-3-3--5-5--| 
D|-0---------------3-3-3-3-3--5-5--| 
Burnt down on your dreams 
It's not like what I've seen, yeah 
I've seen, yeah 
Oh I'm burnt down on your dreams 
It's not like what I've seen, yeah 
I've seen, yeah 
Verse 2 (As with Verse 1) 
You rode into my bed 
I let you come back 
You hear what I said 
I understand that 
And you try to keep me there 
But I'm gonna fight back 
You took more than your share 
Yeah, I want it back 
Chorus (As with Chorus) 
Burnt down on your dreams 
It's not like what I've seen, yeah 
I've seen... 
Bridge(x4) 
(CLEAN) 
e|-0-0-0-0--0--0-0-0-0--0-0-0-0--0--0-0-0-0---|  
B|-3-3-3-3--3--3-3-3-3--3-3-3-3--3--3-3-3-3---|  
G|-4-4-4-4--4--4-4-4-4--4-4-4-4--4--4-4-4-4---| 
D|-5-5-5-5--5--5-5-5-5--3-3-3-3--3--3-3-3-3---| 
A|--------------------------------------------| 
D|--------------------------------------------| 
I'm burning down 
I'm burning down 
I'm burning down... 
Pre-Verse 
e|--------------------------------------|  
B|---------4/6-6-6-6-6-6-6-6-6-6--------|  
G|---------5/7-7-7-7-7-7-7-7-7-7--------| 
D|---------5/7-7-7-7-7-7-7-7-7-7--3-3---| 
A|------0--3/5-5-5-5-5-5-5-5-5-5--3-3---| 
D|-15/--0-------------------------3-3---| 
e|--------------------------------------|  
B|----4/6-6-6-6-6-----------------------|  
G|----5/7-7-7-7-7-----------------------| 
D|----5/7-7-7-7-7--3-3-3-3-3--5-5-------| 
A|-0--3/5-5-5-5-5--3-3-3-3-3--5-5-------| 
D|-0---------------3-3-3-3-3--5-5-------| 
Verse 3 (As with Verse sequence, x2) 
You rode into my head 
Yeah I see you come back 
Yeah you took more than your share 
Now I want it back 
Outro 
e|-----------------------------------|  
B|-----------------------------------|  
G|-----------------------------------| 
D|-8-x-8-x-8-x-8-x-8-x-8-x-8-x-8-x---| 
A|-8-x-8-x-8-x-8-x-8-x-8-x-8-x-8-x---| 
D|-8-x-8-x-8-x-8-x-8-x-8-x-8-x-8-x---| 
e|-------------------------------------------|  
B|-------------------------------------------|  
G|-------------------------------------------| 
D|-10-x-10-x-10-x-10-x-10-x-10-x-10-x-10-x---| 
A|-10-x-10-x-10-x-10-x-10-x-10-x-10-x-10-x---| 
D|-10-x-10-x-10-x-10-x-10-x-10-x-10-x-10-x---| 
e|---------------------------------|  
B|----4/6-6-6-6-6-6-6-6-6-6--------|  
G|----5/7-7-7-7-7-7-7-7-7-7--------| 
D|----5/7-7-7-7-7-7-7-7-7-7--3-3---| 
A|-0--3/5-5-5-5-5-5-5-5-5-5--3-3---| 
D|-0-------------------------3-3---| 
e|---------------------------------|  
B|----4/6-6-6-6-6------------------|  
G|----5/7-7-7-7-7------------------|(x2, incl. 4 bars above) 
D|----5/7-7-7-7-7--3-3-3-3-3--5-5--| 
A|-0--3/5-5-5-5-5--3-3-3-3-3--5-5--| 
D|-0---------------3-3-3-3-3--5-5--| 
e|---------------------------------|  
B|----4/6-6-6-6-6-6-6-6-6-6--------|  
G|----5/7-7-7-7-7-7-7-7-7-7--------| 
D|----5/7-7-7-7-7-7-7-7-7-7--3-3---| 
A|-0--3/5-5-5-5-5-5-5-5-5-5--3-3---| 
D|-0-------------------------3-3---| 
e|---------------------------------|  
B|----4/6-6-6-6-6------------------|  
G|----5/7-7-7-7-7------------------|(x2, incl. Above 2 bars above) 
D|----5/7-7-7-7-7--3-3-3-3-3--5-5--| 
A|-0--3/5-5-5-5-5--3-3-3-3-3--5-5--| 
D|-0---------------3-3-3-3-3--5-5--| 
e|--------------------------------------|--------------|  
B|----4/6-6-6-6-6-----------------------|--------------|  
G|----5/7-7-7-7-7-----------------------|--------------| 
D|----5/7-7-7-7-7--3-3-3-3-3--5-5-(x4)--|-0-let ring---| 
A|-0--3/5-5-5-5-5--3-3-3-3-3--5-5-------|-0------------| 
D|-0---------------3-3-3-3-3--5-5-------|-0------------| 
I'm burnt down on your dreams 
It's not like what I've seen, yeah 
I've seen... 
Song Structure 
Intro 
Verse 1 
Chorus 
Verse 2 
Chorus 
Bridge 
Pre-Verse 
Verse 3 
Outro