Tabbed By: (Strider) Daniel King  
Email: [email protected]  
Standard Tuning 
 e 
~-vibrato 
b-bend 
p-pull off 
h-hammer on 
p.m.-palm mute 
r-release hand preventing a ring out 
d- dub-out 
/-Slide 
Verse 1 
e|-0-0-0-0-0-0--0-0-0-0-0-0--0-0------------|  
B|-0-0-0-0-0-0--0-0-0-0-0-0--0-0------------|  
G|-4-4-4-4-4-7--4-4-4-4-4-6--4-4------------| 
D|-4-4-4-4-4-7--4-4-4-4-4-6--4-4------------| 
A|-2-2-2-2-2-5--2-2-2-2-2-4--2-2------------| 
E|------------------------------------------| 
e|-0--0--0-----0------------0-0-----0-------|  
B|-0--0--0-----0------------0-0-----0-------|  
G|-1--1--1-1-1-1--1-1-1-1-1-1-1-1-1-1--1-1--| 
D|-2--2--2-2-2-2--2-2-2-2-2-2-2-2-2-2--2-2--| 
A|-2-------2-2----2-2-2-2-2-----2-2-2--2-2--| 
E|-0-------0-0----0-0-0-0-0-----0-0-0--0-0--| 
e|-0-0-0-0-0-0--0-0-0-0-0-0-0-0--0-0-0-0-0-0--0-0-0-0-0-0-0-0--|  
B|-0-0-0-0-0-0--0-0-0-0-0-0-0-0--0-0-0-0-0-0--0-0-0-0-0-0-0-0--|  
G|-4-4-4-4-4-7--7-7-7-7-7-7-7-7--4-4-4-4-4-6--6-6-6-6-6-6-6-6--| 
D|-4-4-4-4-4-7--7-7-7-7-7-7-7-7--4-4-4-4-4-6--6-6-6-6-6-6-6-6--| 
A|-2-2-2-2-2-5--5-5-5-5-5-5-5-5--2-2-2-2-2-4--4-4-4-4-4-4-4-4--| 
E|-------------------------------------------------------------| 
e|-0-0---0--0-------0-0-0-0-----0--0------0-0-0-0-0------------|  
B|-0-0---0--0-------0-0-0-0-----0--0------0-0-0-0-0------------|  
G|-4-4-1-1--1--1-1--1-1-1-1-1-1-1--1--1-1-1-1-1-1-0------------| 
D|-4-4-2-2--2--2-2--2-2-2-2-2-2-2--2--2-2-2-2-2-2-0------------| 
A|-2-2-2-2--2--2-2----------2-2-2-----2-2-2-2-2-2-0------------| 
E|-----2-0--0--0-0----------0-0-0-----0-0-0-0-0-0-0------------| 
You find yourself in the bathroom cupboard  
Prescriptions don't matter anymore  
Squeezing into your blue jeans baby  
Gonna get some sooner that's for sure 
Chorus (x3) 
e|-3---3--3--3-3-3-3-3--0-0-0--0--0-0-0-0-0-------|  
B|-3---3--3--3-3-3-3-3--2-2-2--2--2-2-2-2-2-------|  
G|-0---0--0--0-0-0-0-0--2-2-2--2--2-2-2-2-2-------| 
D|-0---0--0--0-0-0-0-0--2-2-2--2--2-2-2-2-2-------| 
A|-x-x-x--x--x-x-x-x-x----------------------------| 
E|-3-3-3--3--3-3-3-3-3----------------------------| 
e|-----0--0------0-0-0------0--0------0-0-0-0-----|  
B|-----0--0------0-0-0------0--0------0-0-0-0-----|  
G|-1-1-1--1--1-1-1-1-1--1-1-1--1--1-1-1-1-0-0-----| 
D|-2-2-2--2--2-2-2-2-2--2-2-2--2--2-2-2-2-0-0-----| 
A|-2-2-2--2--2-2--------2-2-2--2--2-2-2-2-0-0-----| 
E|-0-0-0--0--0-0--------0-0-0--0--0-0-0-0-0-0-----| 
'Cause all you wanna be is here ..yeah yeah.. 
Where all you think and see and feel 
Verse 2 (x2) 
e|-0-0-0-0-0-0--0-0-0-0-0-0-0-0--0-0-0-0-0-0--0-0-0-0-0-0-0-0--|  
B|-0-0-0-0-0-0--0-0-0-0-0-0-0-0--0-0-0-0-0-0--0-0-0-0-0-0-0-0--|  
G|-4-4-4-4-4-7--7-7-7-7-7-7-7-7--4-4-4-4-4-6--6-6-6-6-6-6-6-6--| 
D|-4-4-4-4-4-7--7-7-7-7-7-7-7-7--4-4-4-4-4-6--6-6-6-6-6-6-6-6--| 
A|-2-2-2-2-2-5--5-5-5-5-5-5-5-5--2-2-2-2-2-4--4-4-4-4-4-4-4-4--| 
E|-------------------------------------------------------------| 
e|-0-0---0--0-------0-0-0-0-----0--0------0-0-0-0-0------------|  
B|-0-0---0--0-------0-0-0-0-----0--0------0-0-0-0-0------------|  
G|-4-4-1-1--1--1-1--1-1-1-1-1-1-1--1--1-1-1-1-1-1-0------------| 
D|-4-4-2-2--2--2-2--2-2-2-2-2-2-2--2--2-2-2-2-2-2-0------------| 
A|-2-2-2-2--2--2-2----------2-2-2-----2-2-2-2-2-2-0------------| 
E|-----2-0--0--0-0----------0-0-0-----0-0-0-0-0-0-0------------| 
Climbing into your big bed hazy  
The lights aren't on but you shield your eyes 
It will help you dream help you bleed 
One more drop sweet dreams 
Chorus (x2) 
e|-3-3-3--3--3-3-3-3-3-3-3--0-0-0--0--0-0-0-0-0-0------|  
B|-3-3-3--3--3-3-3-3-3-3-3--2-2-2--2--2-2-2-2-2-2------|  
G|-0-0-0--0--0-0-0-0-0-0-0--2-2-2--2--2-2-2-2-2-2------| 
D|-0-0-0--0--0-0-0-0-0-0-0--2-2-2--2--2-2-2-2-2-2------| 
A|-x-x-x--x--x-x-x-x-x-x-x-----------------------------| 
E|-3-3-3--3--3-3-3-3-3-3-3-----------------------------| 
e|-----0--0------0-0-0------0--0------0-0-0-0----------|  
B|-----0--0------0-0-0------0--0------0-0-0-0----------|  
G|-1-1-1--1--1-1-1-1-1--1-1-1--1--1-1-1-1-0-0----------| 
D|-2-2-2--2--2-2-2-2-2--2-2-2--2--2-2-2-2-0-0----------| 
A|-2-2-2--2--2-2--------2-2-2--2--2-2-2-2-0-0----------| 
E|-0-0-0--0--0-0--------0-0-0--0--0-0-0-0-0-0----------| 
'Cause all you wanna be is here?yeah heh 
Where all you think no see and feels 
Ending (x2, fades into background) 
e|-0-0-0-0-0-0--0-0-0-0-0-0-0-0--0-0-0-0-0-0--0-0-0-0-0-0-0-0--|  
B|-0-0-0-0-0-0--0-0-0-0-0-0-0-0--0-0-0-0-0-0--0-0-0-0-0-0-0-0--|  
G|-4-4-4-4-4-7--7-7-7-7-7-7-7-7--4-4-4-4-4-6--6-6-6-6-6-6-6-6--| 
D|-4-4-4-4-4-7--7-7-7-7-7-7-7-7--4-4-4-4-4-6--6-6-6-6-6-6-6-6--| 
A|-2-2-2-2-2-5--5-5-5-5-5-5-5-5--2-2-2-2-2-4--4-4-4-4-4-4-4-4--| 
E|-------------------------------------------------------------| 
e|-0-0---0--0-------0-0-0-0-----0--0------0-0-0-0-0------------|  
B|-0-0---0--0-------0-0-0-0-----0--0------0-0-0-0-0------------|  
G|-4-4-1-1--1--1-1--1-1-1-1-1-1-1--1--1-1-1-1-1-1-0------------| 
D|-4-4-2-2--2--2-2--2-2-2-2-2-2-2--2--2-2-2-2-2-2-0------------| 
A|-2-2-2-2--2--2-2----------2-2-2-----2-2-2-2-2-2-0------------| 
E|-----2-0--0--0-0----------0-0-0-----0-0-0-0-0-0-0------------| 
Eeh how e how? 
Song Structure 
Verse 1 
Chorus 
Verse 2 
Chorus 
Ending