Tabbed By: (Strider) Daniel King  
Email: [email protected]  
Dropped  tuning  
 e 
~-vibrato 
b-bend 
p-pull off 
h-hammer on 
^-palm mute 
r-release hand preventing a ring out 
d- dub-out 
/-Slide 
DISTORTION THROUGHOUT EXCEPT WHERE NOTED 
Intro (x4) 
e----------------------------|  
B----------------------------|  
G----------------------------| 
D----------------------------| 
A---5p4-5p4-5p4-5p4-4--------| 
D-0--------------------------| 
(~Guitar 2~ CLEAN) Played throughout 
e----------------------------|  
B----------------------8-----|  
G-7-7-9-10-9-7--7-9-10---7---| 
D----------------------------| 
A----------------------------| 
D----------------------------| 
^ 
Verse 1 (x4) 
e------------------------------------------------|  
B------------------------------------------------|  
G------------10-10------------------10-10--------| 
D-8-8-x-x-x--10-10-x-x-x-8-8-x-x-x--10-10-x-x-x--| 
A-8-8-x-x-x--8--8--x-x-x-8-8-x-x-x--8--8--x-x-x--| 
D-8-8-x-x-x--8--8--x-x-x-8-8-x-x-x--8--8--x-x-x--| 
e------------------------------------------------|  
B------------------------------------------------|  
G------------------------------------------------| 
D------------------------------------------------| 
A---5p4-5p4-5p4-5p4-4----5p4-5p4-5p4-5p4-4-------| 
D-0--------------------0-------------------------| 
It's not what you take, but what you leave. 
I never thought you could see. 
Its more than fantasy, you are only bad dreams! 
Chorus (x4) 
D------------------------------------------------| 
e------------------------------------------------|  
B------------------------------------------------|  
G------------------------------------------------| 
D-5-5-5-5-5-5--3-3--8-8-8-8-7-8-8-8-8-8-8--------| 
A-5-5-5-5-5-5--3-3--8-8-8-8-7-8-8-8-8-8-8--------| 
D-5-5-5-5-5-5--3-3--8-8-8-8-7-8-8-8-8-8-8--------| 
YOUR DEAD MIND, YOUR DEAD MIND,  
YOUR DEAD MIND, YOUR DEAD MIND 
Pre-Verse (As with Intro) 
Verse 2 (As with Verse 1) 
How could this be so real. 
I thought it would bleed and heal. 
You never let go of me. 
There's no way to be free. 
Chorus (As with chorus) 
YOUR DEAD MIND, YOUR DEAD MIND,  
YOUR DEAD MIND, YOUR DEAD MIND 
Interlude (x14) 
e----------------------|-On the fourteenth-------|  
B----------------------|-time play this----------|  
G----------------------|-------------------------| 
D-----0----------------|-----0-------------------| 
A---5---5-5-5-5-4h5-5--|---5---5-5-5-5-----------| 
D-0--------------------|-0-----------------------| 
She says you would leave me alone? 
She says she wanted to be left alone? 
She says you would leave me alone? 
She says she wanted to be left alone? 
She says you would leave me alone? 
She says she wanted to be left alone? 
Verse 2 (As with Verse 1) 
How much is enough? Would you just turn to dust? 
I wanted you to believe - THIS IS HOW IT COULD BE!!! 
Chorus (As with Chorus) 
YOUR DEAD MIND, YOUR DEAD MIND,  
YOUR DEAD MIND, YOUR DEAD MIND 
Ending (As with Intro) 
(~Guitar 2~)  
e---------------------------------------------------|  
B---------------------------------------------------|  
G-7-7-9-10-9-7--7-9-10-9-7--7-9-10-9-7--7-9-10-9-7--| 
D---------------------------------------------------| 
A---------------------------------------------------| 
D---------------------------------------------------| 
Song Structure 
Intro 
Verse 1 
Chorus 
Pre-Verse 
Verse 2 
Chorus 
Interlude 
Verse 2 
Chorus 
Ending