Album: Live At Chapel Concert 
Transcribed by: Tony Crouch 
Email: [email protected] 
I transcribed this song from the Killing Heidi 
"Cold Live At The Chapel" Concert, 
This song is a cover that KH have has been doning for ages, 
the original was done by "Silverchair" 
KH also did this song Unplugged, which was very COOL! 
-0-0-0-0|-2-2-0-0|-0-0----|--------------------------------------------------- 
-2-2-2-2|-3-3-3-3|-3-3-3-3|--------------------------------------------------- 
-2-2-2-2|-2-2-2-2|-0-0-0-0|--------------------------------------------------- 
-2-2-2-2|-0-0-0-0|-2-2-0-0|--------------------------------------------------- 
-0-0-0-0|--------|-----2-3|--------------------------------------------------- 
--------|--------|--------|--------------------------------------------------- 
This is the intro and Verse Progression, 
Right at the start you can hear Jesse raking his pick down the string of 
the A chord, 
Repeat htis many 
times. 
-0-0-0-0|-0-0-0-0|-0-0-0-0|--------------------------------------------------- 
-0-0-0-0|-0-0-0-0|-2-2-2-2|--------------------------------------------------- 
-3-3-3-3|-4-4-4-4|-2-2-2-2|----x2--------------------------------------------- 
-4-4-4-4|-5-5-5-5|-2-2-2-2|--------------------------------------------------- 
-4-4-4-4|-5-5-5-5|-0-0-0-0|--------------------------------------------------- 
-2-2-2-2|-3-3-3-3|--------|--------------------------------------------------- 
This is the Pre-Chorus 
Then we go to these really weird chords, which seem to be bar chords, 
but with the high strings being played open, very interesting effect, 
Eh? 
-0-0-0-0|-0-0-0--0-|-0-0-0-0|------------------------------------------------- 
-0-0-0-0|-0-0-0--0-|-0-0-0-0|------------------------------------------------- 
-6-6-6-6|-8-8-9--9-|-6-6-6-6|------------------------------------------------- 
-7-7-7-7|-9-9-10-10|-7-7-7-7|------------------------------------------------- 
-7-7-7-7|-9-9-10-10|-7-7-7-7|------------------------------------------------- 
-5-5-5-5|-7-7-8--8-|-5-5-5-5|------------------------------------------------- 
Then we go onto the Chorus Progression, again with those weird chords, 
Repeat this many times. 
Then you do the Verse again, 
Then you do the Pre-Chorus again, 
Then you do the Chorus Again, 
Then you only do the 1st line of the verse to finish. 
There you go that it. 
Bye for now.