Anger Is The Brand New Thing

Kisschasy

Get Anger Is The Brand New Thing chords

  			Anger Is The Brand New Thing 
Tab by al [email protected] 
 e 
INTRO 
|-------------------------------------------------------------|------| 
|-------------------------------------------------------------|------| 
|----------------9-9-9-9-9-9----------------------------------|--7~--| 
|--5-5-5-5-5-5-5-9-9-9-9-9-9-9-9-9-9-9-9-9-9-9-9-9-9-77-7-----|--X---| 
|--5-5-5-5-5-5-5-7-7-7-7-7-7-9-9-9-9-9-9-9-9-9-9-9-9-77-7-----|--5~--| 
|--3-3-3-3-3-3-3-7-7-7-7-7-7-7-7-7-7-7-7-7-7-7-7-7-7-55-5-x2--|------| 
CHORUS -  x4 
BRIDGE 
"...YEAH!..."  "..I used to think that........" 
|----------------|--------------------------------| 
|----------------|--------------------------------| 
|----------------|--------------------------------| 
|----------------|---------4---2-----------4---2--| 
|--555555555-5-5-|-2---5---2---0---5---2---2---0--| 
|--333333333-3-3-|-0---3-----------3---0----------|<-strummin not shown 
pm........... 
picky part 
|----5----| 
|------3--| 
|--0------| 
|---------| 
|---------| 
|---------| 
Then palm mute  before the final chorus. You kids should be able to work it out from here!