Stay Awake 
Tab by Al [email protected] 
INTRO 
|----------------------------------------------|---------| 
|----------------------------------------------|------8--| 
|----------------------------------------------|-----7---| 
|--0-0h4p0-0-0-0-0h4p0-11-11-11-11-11-11-77----|----5----| 
|--0-0h4p0-0-0-0-0h4p0--9--9--9--9--9--9-77----|---5-----| 
|--0-0h4p0-0-0-0-0h4p0--9--9--9--9--9--9-77-x3-|--5------| 
VERSE 
Acoustic Guitar (Stumming not shown) 
|--0-----------0--------| 
|--3-----8-----3-----8--| 
|--2-----7-----2-----7--| 
|--0-----5-----0-----5--| 
|--0-----5-----0-----5--| 
|--------5-----------5--| 
Guitar 2 (fills) 
|-------|-----2--|--12b-10r--| 
|--(7)--|----3---|-----------| 
|-------|---2----|-----------| 
|-------|--0-----|-----------| 
|-------|--------|-----------| 
|-------|--------|-----------| 
CHORUS 
"...now all thats left are the memories and...." 
|------------------------------------------------------------------- 
|------------------------------------------------------------------- 
|----------------------------------------------7777----9999----1111- 
|--0-0h4p0-0-0-0-0h4p0-11-11-11-11-11-11-77-55-XXXX-55-XXXX-55-XXXX- 
|--0-0h4p0-0-0-0-0h4p0--9--9--9--9--9--9-77-55-5555-55-7777-55-9999- 
|--0-0h4p0-0-0-0-0h4p0--9--9--9--9--9--9-77-55------55------55------ 
--------------| 
--------------| 
----99-9/7-7--| 
-55-XX-X-X-X--| 
-55-77-7/5-5--| 
-55-----------|x2 
VERSE 2 - SAME 
CHORUS 2 SAME 
BRIDGE (Tack this bit on to the end of the chorus) 
|--------------------------| 
|--------------------------| 
|--------------------------| 
|--2-2-0-0-5~--2-2-5-5-0~--| 
|--2-2-0-0-5~--2-2-5-5-0~--| 
|--2-2-0-0-5~--2-2-5-5-0~--|x2 
BRIDGE (part 2) 
|------------------------------------------| 
|------------------------------------------| 
|------------------------------------------| 
|--7-7-7-7-7-5-5-5-5-5-0-0-0-0-0-0-0-0-0-0-| 
|--7-7-7-7-7-5-5-5-5-5-0-0-0-0-0-0-0-0-0-0-| 
|--7-7-7-7-7-5-5-5-5-5-0-0-0-0-0-0-0-0-0-0-| 
play this 4 times, every 2nd time palm mute the  (listen to the cd) 
CHORUS 3 - SAME 
then repeat this for the outro. 
|--------------------------| 
|--------------------------| 
|--------------------------| 
|--2-2-0-0-5~--2-2-5-5-0~--| 
|--2-2-0-0-5~--2-2-5-5-0~--| 
|--2-2-0-0-5~--2-2-5-5-0~--|