Darkside/Stay Awake EP 
Tab by Al [email protected] 
Normal Tuning 
(2 guitars in recording) 
Intro 
|---------------------------------------------------| 
|--------------9-9-9-9-9-9--------------------------| 
|--------------X-X-X-X-X-X--------------------------| 
|--------------6-6-6-6-6-6-7-7-7-7-7-7--------------| 
|--4-4-4-4-4-4-------------5-5-5-5-5-5-9-9-9-9-9-9--| 
|--2-2-2-2-2-2-------------------------7-7-7-7-7-7--|x2 
Verse 
|---------------------------------------------------| 
|---------------------------------------------------| 
|---------------------------------------------------| 
|--------------------------7-7-7-7-7-7--------------| 
|--4-4-4-4-4-4-7-7-7-7-7-7-5-5-5-5-5-5-9-9-9-9-9-9--| 
|--2-2-2-2-2-2-5-5-5-5-5-5-------------7-7-7-7-7-7--|x2 
pm.................................................. 
guitar 2 on second bar comes in with: 
|-----------------------| 
|--X-1010-X-1010--------| 
|--X--8-8-X--8-8--------| 
|--X--7-7-X--7-7--etc.--| 
|-----------------------| 
|-----------------------| 
Pre-Chorusy part 
"i've taken the easy way out..all night..." 
|-------------------------------------| 
|--10~--------------------------------| 
|---X--------------------------9--99--| 
|---7~-------------------------9--99--| 
|------------------------------7--77--| 
|-------------------------------------| 
Chorus 
|-------------------------------------------------------|--------------------------| 
|-------------------------------------------------------|--------------------------| 
|-------------------------------------------------------|--------------------------| 
|--7-7-7-7-7-7------------------------------------------|--7-7-7-7-7-7-------------| 
|--5-5-5-5-5-5-9-9-9-9-9-9-4-4-4-4-4-4-7-7-7-7-7-7------|--5-5-5-5-5-5-9-9-9-9-9-9-| 
|--------------7-7-7-7-7-7-2-2-2-2-2-2-5-5-5-5-5-5--x2--|--------------7-7-7-7-7-7-| 
Now repeat everything again from the Intro. 
Bridge (part1) 
|-------------------------------------------| 
|-------------------------------------------| 
|-------------------------------------------| 
|----------------------77-7-77-7------------| 
|--44-4-44-4-44-4-44-4-55-5-55-5-99-9-99-9--| 
|--22-2-22-2-22-2-22-2-----------77-7-77-7--| 
Bridge (part2) 
|-----------------------------------------------------------------------------| 
|-----------------------------------------------------------------------------| 
|--11--------------------------------11------99999---------9-99-99-9-99-99-9--| 
|-----7777777777-------------7-7-7h9---777777--------------9-99-99-9-99-99-9--| 
|---------------77-555555555----------------------55555555-7-77-77-7-77-77-7--| 
|-----------------------------------------------------------------------------| 
pm........................................................ 
"fire in the breeze....." 
|----------------------------------------------------------| 
|----------------------------------------------------------| 
|----------------------------------------------------------| 
|----------------------------------------------------------| 
|-----------------\4-4-4-4-4-4-7-7-7-7-7-7--repeat chorus--| 
|-----------------\2-2-2-2-2-2-5-5-5-5-5-5-----------------| 
End on