Ode To Silence 
Tabbed by AL [email protected] 
Normal Tuning 
INTRO 
|-------------------------------------------| 
|-------------------------------------------| 
|-------------------------------------------| 
|------4--------4--------4---6-6-6-6-6-6-6--| 
|--6-6-2-2--6-6-2-2--6-6-2-2-4-4-4-4-4-4-4--| 
|--4-4---0--4-4---0--4-4---0-4-4-4-4-4-4-4--|x2 
VERSE 
|-----------------------|--4----4-----2----2---------| 
|-----------------------|----4-4--4-4--4-4--4-4------| 
|--4-4-3-3--------------|----------------------------| 
|---------2-2-2-2-------|----------------------------| 
|-----------------------|----------------------------| 
|------------------x16--|------------------------x4--| 
PM.................      clean --> 
CHORUS 
|-------------------------------------|-------------------------------------------| 
|-------------------------------------|-------------------------------------------| 
|-------------------------------------|-------------------------------------------| 
|------4--------4--------4------------|------4--------4--------4------------------| 
|--6-6-2-2--6-6-2-2--6-6-2-2-4-4-2-2--|--6-6-2-2--6-6-2-2--6-6-2-4-4-4-4-2-2-2-2--| 
|--4-4---0--4-4---0--4-4---0-2-2-0-0--|--4-4---0--4-4---0--4-4-0-2-2-2-2-0-0-0-0--| 
BREAK 
|----------------------------------------| 
|------0-0-00---------------0-0-00-------| 
|-----/4-4-44------4-------/4-4-44---4~--| 
|-------------------4---------------4----| 
|--66---------2-22---2--66---------2-----| 
|--44---------0-00------44---------------| 
PM              .. 
VERSE 2 - SAME 
CHORUS 2 - SAME {just 1  at the end this time} 
BRIDGE 
|------------------------|---------------------| 
|--7---7---7-----0-0-----|--7-7-7-7-7----------| 
|---4-4-4-4-4-4-3--------|--4-4-4-4-4----------| 
|------------------------|---------------------| 
|------------------------|------------2-2-4-4--| 
|--------------------x5--|------------0-0-2-2--| 
4 bars clean, 1 distorted| distorted--> 
INTRO - x2 
CHORUS - x2 
OUTRO 
|--------------------------|-------------------| 
|-----0-0-00---------------|-----0-0-00--------| 
|----/4-4-44------4--------|----/4-4-44----4~--| 
|------------------4-------|--------------4----| 
|--66--------2-22---2------|--66---------2-----| 
|--44--------0-00------x3--|--44---------------| 
PM             ..