Something Good Must Come

Knievel

Get Something Good Must Come chords

  			This song is very good. My pick for pop song of T97. I hope this tab has 
done it justice. The Ebminor in the chorus sounds dodgy so if you have any 
better ideas mail me. 
Wayne uses lots of weird tunings but this one seems to be only tuned down 
half a step from standard. 
Intro chords: 
-------------- 
-7/10--7--5/7- 
-0-0---0--0-0- 
-0-0---0--0-0- 
-x-x---x--x-x- 
-7/10--7--5/7- 
Usually, only the top 3 or 4 strings are strummed but it helps to leave 
your finger planted on the b string to change to the verse. The above 
progression is varied throughout so you can figure out how many times each 
chord is played. 
Verse chords: 
---------- 
-10---10-- 
-11---9--- 
-0----11-- 
-x----x--- 
-10---10-- 
Change: 
-5-0-5-------- 
-3-3-3--3-3-3- 
-0-0-0--0-0-0- then play intro progression 
-0-0-0--0-0-0- 
--------2-2-2- 
-------------- 
Chorus: 
-2-2-0-3---------- 
-3-2-0-3---------- 
-4-2-0-0---------- 
-4-4-2-0---------- 
-2-4-2-2---------- 
---2-0-3---------- 
Bridge: 
-0-2-3-0-2-7-0-0-3-- 
-2-3-3-2-3-9-2-2-3/- 
-2-4-0-2-4-9-2-0-0-- 
-2-4-0-2-4-9-2-2-0-- 
-0-2-2-0-2-7-0-0-2-- 
-----3-----0-----3/- 
Outro: 
---------------------- 
-10-7-2/3---5---7----- 
-0--0-0-0---0---0----- 
-0--0-0-0---0---0----- 
-x--x-x-x---x---x----- 
-10-7-2/3---5---7-----