This is a far from perfect tab. The bendy riffs in the verse are wrong, 
the chorus riff is wrong and the solo is only partly right. Still it will 
suffice for the moment. Mail me with corrections. 
Tune half a step down 
Verse (each chord played several times): 
-3-8--5-8--|-3-8--5------------------- 
-5-10-7-10-|-5-10-7------------------- 
-5-10-7-10-|-5-10-7-10b-10b-10b-9-9-7- 
-5-10-7-10-|-5-10-7------------------- 
-3-8--5-8--|-3-8--5------------------- 
-----------|-------------------------- 
-3-8--5-8--|-3-8--5------------------------------------ 
-5-10-7-10-|-5-10-7------------------------------------ 
-5-10-7-10-|-5-10-7-7b/12b-12b-12b-10b-10b-10b-9b-9b-7- 
-5-10-7-10-|-5-10-7------------------------------------ 
-3-8--5-8--|-3-8--5------------------------------------ 
-----------|------------------------------------------- 
Instead of the bends you could play the corresponding barre chords 
Chorus (each chord played several times): 
-0-3-1-3-3-1-1-0------------ 
-1-1-3-3-3-1-3-1------------ 
-0-0-2-2-0-2-3-0----------0- 
-2-2-0-0-0-3-3-2------0h2--- 
-3-3-----2-3-1-3--0h3------- 
---------3-1---------------- 
Solo: 
--------------------------------- 
-----------------------5--------- 
-5-5-5h7-5---5-7-7b-7b---7-5-7-5- 
-----------7--------------------- 
--------------------------------- 
--------------------------------- 
something like the above is played a few times with variation. Make your 
own solo up based on the notes. The faster solo begins with a slide from 
2/5 on the  string.