Notes: Here's all the chords to get you playing along 
to this Little Birdy track. The lyrics are probably 
wrong in places, Comments and corrections welcome. 
VERSE CHORDS: 
E-|-0---0---|- 
B-|-1---0---|- 
G-|-0---0---|- 
D-|-2---2---|- 
A-|-3---2---|- 
E-|-----0---|- 
PRE CHORUS CHORDS: (the "I should have known with you" bit) 
E-|-0----0---0---|- 
B-|-1----1---0---|- 
G-|-2----0---0---|- 
D-|-2----2---2---|- 
A-|-0----3---2---|- 
E-|----------0---|- 
CHORUS CHORDS: 
E-|-0---0---1---3------|- 
B-|-0---1---1---3--3---|- 
G-|-0---2---2---0--0---|- 
D-|-2---2---3---0--0---|-(x 3) 
A-|-2---0---3---2--x---|- 
E-|-0-------1---3--2---|- 
E-|-0----0---0---|- 
B-|-1----1---0---|- 
G-|-2----0---0---|- 
D-|-2----2---2---|- 
A-|-0--2-3---2---|- 
E-|----------0---|- 
BRIDGE / OUTRO CHORDS: 
E-|-0---4----3---0---|- 
B-|-0---5----5---0---|- 
G-|-0---6----5---0---|- 
D-|-2---6----5---2---|- 
A-|-2---4----3---2---|- 
E-|-0------------0---|- 
Lyrics: 
Have you got, anything worth waiting for? 
Tear my heart, tear my heart, so it's on the floor 
I should have known with you  
I should have known with you, better than that, 
It's too late, 
It's too late to not let you down 
And your suitcase 
It is lining the heart you stole  
I should have known with you 
I should have known with you better then that 
But it's all that you left,  
But it's all that you left, 
It's too late, i can't love you now 
But its all that you left 
But its all that you left 
It's too late 
I should have known with you 
I should have known with you better then that 
I should have known with you 
I should have known with you better then that 
But you, you burnt a hole, you burnt a hole in my heart, 
Disarm and let it slide 
I won't be the one you want,  
If lazy love, will not help my aching bones 
It's too late 
The patient man, quietly awaits 
And your suitcase 
It is lining the heart you stole 
I should have known with you 
I should have known with you better then that 
But you, you burnt a hole, you burnt a hole in my heart, 
Disarm and let it slide 
I won't be the one you want,  
If lazy love, will not help my aching bones