Notes: Play this song with a capo on the 1st fret and 
it sounds beautiful :) Below chords are relative to  
the capo. 
VERSES CHORDS: 
E-|-0---0---1---0-|- 
B-|-1---0---1---0-|- 
G-|-0---1---2---1-|- 
D-|-2---2---3---2-|- 
A-|-3---2---3---2-|- 
E-|-----0---1---0-|- 
CHORUS CHORDS: 
E-|-1----0----3-|- 
B-|-1----1----3-|- 
G-|-2----2----0-|- 
D-|-3----2----0-|- 
A-|-3----0----2-|- 
E-|-1---------3-|- 
Lyrics: 
Live on the outside 
I'll help you through your pain 
If you help me through mine 
Never have I met 
Someone as insensitive as you 
I want to escape what you've done to my life 
But I love the way that you're always on my mind 
It's ok you're not a bad one you're sane 
I can't help this pain that I feel 
Relapse and soda 
My head is not all that you want it to lay 
Exisistance in purpose 
Explain what my touch means to you if it does 
I want to escape what you've done to my life 
But I love the way that you're always on my mind 
It's ok you're not a bad one you're sane 
I can't help this pain that I feel 
I want to escape what you've done to my life 
I love the way that you're always on my mind 
It's ok you're not a bad one your sane 
So I write you a love song I feel so blue