DOWNTOWN (A.Wasiliev) 
Tabbed by MOMO 
Chords Used: 
E --3---0---0---0---2---0---0-- 
B --0---1---0---1---3---1---1-- 
G --0---0---0---2---2---0---2-- 
D --0---2---2---3---0---0---2-- 
A --2---3---2---0---0---2---0-- 
E --3---x---0---x---x---x---0-- 
Riff (play twice) 
E ------------------------- 
B ------------------------- 
G ------4--74---5--74------ 
D --5---------------------- 
A ------------------------- 
E ------------------------- 
The same old loose lipped cannon speaks for you today 
Alone without your talent there's not much to say 
All these arguments are meaningless today 
And the reasons why they've vanished in the haze 
Calling downtown, calling downtown 
No reasons do they owe you tell me how'd you think it came to be 
Calling downtown, calling downtown 
How they came to love you when you didn't want to set them free 
(Repeat Riff) 
We don't forgive to know you will you ever see 
No reasons do we owe you how'd it come to be 
The leaves have lost their shadows deep amongst the grey 
I hope that you'll be friendly I heard someone say 
Calling downtown, calling downtown 
No reasons do they owe you tell me how'd you think it came to be 
Calling downtown, calling downtown 
How they came to love you when you didn't want to set them free 
 (play twice) 
Oooh 
Oooh 
(Solo) 
E ---------------------------------7---7---7-857-------7------- 
B --8---8---8---7--8---8---8---7-8----------------------------- 
G ------------7--------------7--------------------------------- 
D ------------------------------------------------------------- 
A ------------------------------------------------------------- 
E ------------------------------------------------------------- 
E ---------------------------------878787-5-------------------- 
B ------------------------------------------8------1-------1--- 
G ----0-0-4-5--0-4-5--0-4-5--4-2-0---------------2---2---0---0- 
D ---------------------------------------------3-------2------- 
A ------------------------------------------------------------- 
E ------------------------------------------------------------- 
It's a stranger (calling downtown) 
It's a stranger (calling downtown) 
It's a stranger the further away 
It's a stranger (calling downtown) 
It's a stranger (calling downtown) 
It's a stranger the further away 
It's a stranger (calling downtown) 
It's a stranger (calling downtown) 
It's a stranger the further away 
Well it's easy to start from the back of the line 
                                 (calling downtown) 
Where there's no one to tell ya you're still behind 
                                (calling downtown) 
It's a stranger the further away you get 
And you never miss your friends until ya can't relate 
                                         (calling downtown) 
To the people beside you here today 
                         (calling downtown) 
It's a stranger the further away you get 
The further away you get 
    (calling downtown)  
The further away you get 
    (calling downtown) 
http://home.kooee.com.au/grimreaper/momo/tabs/downtown.txt