by steve([email protected]) 
i just worked this out one out one day when i was  
fucking around so its not all the song, or both guitars 
just the main bit 
tip:to get that cool 'wobbly' effect rest the whammy bar 
lightly in your palm while picking-you dont have to move it  
it in and out just up and down 
THE MAIN BIT: 
E-2--2-2-2--3--2--0--2--0--0------------------------------ 
B-3--3-3-3--3--3--3--3--3--0---2---2-2-2-2-2-------------- 
G-2--2-2-2--2--2--2--2--2--2---2---2-2-2-2-2------2-4-2--- 
D------------------------------2---2-2-2-2-2--2-4--------- 
A------------------------------------------------------ 
E------------------------------------------------------ 
then it goes like this for a bit 
E--2--2--2--2-2-2--3--3--3-3-3-3------------------------ 
B--3--3--3--3-3-3--3--3--3-3-3-3----------------------- 
G--2--2--2--2-2-2--2--2--2-2-2-2----------------------- 
D------------------------------------------------------ 
A------------------------------------------------------ 
piece of piss  
abuse, veiws ,additions etc to [email protected]